ISO-10303-21;
HEADER;
/* Generated by software containing ST-Developer
 * from STEP Tools, Inc. (www.steptools.com) 
 */
/* OPTION: using custom renumber hook */

FILE_DESCRIPTION(
/* description */ ('STEP AP214'),
/* implementation_level */ '2;1');

FILE_NAME(
/* name */ '51202',
/* time_stamp */ '2025-09-18T14:22:19+02:00',
/* author */ ('License CC BY-ND 4.0'),
/* organization */ ('CADENAS'),
/* preprocessor_version */ 'ST-DEVELOPER v19.3',
/* originating_system */ 'PARTsolutions',
/* authorisation */ '  ');

FILE_SCHEMA (('AUTOMOTIVE_DESIGN {1 0 10303 214 3 1 1}'));
ENDSEC;

DATA;
#10=PROPERTY_DEFINITION_REPRESENTATION(#14,#12);
#11=PROPERTY_DEFINITION_REPRESENTATION(#15,#13);
#12=REPRESENTATION('',(#16),#459);
#13=REPRESENTATION('',(#17),#459);
#14=PROPERTY_DEFINITION('pmi validation property','',#470);
#15=PROPERTY_DEFINITION('pmi validation property','',#470);
#16=VALUE_REPRESENTATION_ITEM('number of annotations',COUNT_MEASURE(0.));
#17=VALUE_REPRESENTATION_ITEM('number of views',COUNT_MEASURE(0.));
#18=VERTEX_LOOP('',#134);
#19=SPHERICAL_SURFACE('',#308,3.36);
#20=CONTEXT_DEPENDENT_SHAPE_REPRESENTATION(#36,#472);
#21=CONTEXT_DEPENDENT_SHAPE_REPRESENTATION(#37,#474);
#22=CONTEXT_DEPENDENT_SHAPE_REPRESENTATION(#38,#476);
#23=CONTEXT_DEPENDENT_SHAPE_REPRESENTATION(#39,#477);
#24=CONTEXT_DEPENDENT_SHAPE_REPRESENTATION(#40,#478);
#25=CONTEXT_DEPENDENT_SHAPE_REPRESENTATION(#41,#479);
#26=CONTEXT_DEPENDENT_SHAPE_REPRESENTATION(#42,#480);
#27=CONTEXT_DEPENDENT_SHAPE_REPRESENTATION(#43,#481);
#28=NEXT_ASSEMBLY_USAGE_OCCURRENCE('NAUO1','51202 Housing raceway disc',
'51202 Housing raceway disc',#482,#483,'');
#29=NEXT_ASSEMBLY_USAGE_OCCURRENCE('NAUO2','51202 Shaft raceway disc',
'51202 Shaft raceway disc',#482,#484,'');
#30=NEXT_ASSEMBLY_USAGE_OCCURRENCE('NAUO3','51202 Ball','51202 Ball',#482,
#485,'');
#31=NEXT_ASSEMBLY_USAGE_OCCURRENCE('NAUO4','51202 Ball','51202 Ball',#482,
#485,'');
#32=NEXT_ASSEMBLY_USAGE_OCCURRENCE('NAUO5','51202 Ball','51202 Ball',#482,
#485,'');
#33=NEXT_ASSEMBLY_USAGE_OCCURRENCE('NAUO6','51202 Ball','51202 Ball',#482,
#485,'');
#34=NEXT_ASSEMBLY_USAGE_OCCURRENCE('NAUO7','51202 Ball','51202 Ball',#482,
#485,'');
#35=NEXT_ASSEMBLY_USAGE_OCCURRENCE('NAUO8','51202 Ball','51202 Ball',#482,
#485,'');
#36=(
REPRESENTATION_RELATIONSHIP(' ',' ',#270,#269)
REPRESENTATION_RELATIONSHIP_WITH_TRANSFORMATION(#44)
SHAPE_REPRESENTATION_RELATIONSHIP()
);
#37=(
REPRESENTATION_RELATIONSHIP(' ',' ',#271,#269)
REPRESENTATION_RELATIONSHIP_WITH_TRANSFORMATION(#45)
SHAPE_REPRESENTATION_RELATIONSHIP()
);
#38=(
REPRESENTATION_RELATIONSHIP(' ',' ',#272,#269)
REPRESENTATION_RELATIONSHIP_WITH_TRANSFORMATION(#46)
SHAPE_REPRESENTATION_RELATIONSHIP()
);
#39=(
REPRESENTATION_RELATIONSHIP(' ',' ',#272,#269)
REPRESENTATION_RELATIONSHIP_WITH_TRANSFORMATION(#47)
SHAPE_REPRESENTATION_RELATIONSHIP()
);
#40=(
REPRESENTATION_RELATIONSHIP(' ',' ',#272,#269)
REPRESENTATION_RELATIONSHIP_WITH_TRANSFORMATION(#48)
SHAPE_REPRESENTATION_RELATIONSHIP()
);
#41=(
REPRESENTATION_RELATIONSHIP(' ',' ',#272,#269)
REPRESENTATION_RELATIONSHIP_WITH_TRANSFORMATION(#49)
SHAPE_REPRESENTATION_RELATIONSHIP()
);
#42=(
REPRESENTATION_RELATIONSHIP(' ',' ',#272,#269)
REPRESENTATION_RELATIONSHIP_WITH_TRANSFORMATION(#50)
SHAPE_REPRESENTATION_RELATIONSHIP()
);
#43=(
REPRESENTATION_RELATIONSHIP(' ',' ',#272,#269)
REPRESENTATION_RELATIONSHIP_WITH_TRANSFORMATION(#51)
SHAPE_REPRESENTATION_RELATIONSHIP()
);
#44=ITEM_DEFINED_TRANSFORMATION(' ',' ',#273,#290);
#45=ITEM_DEFINED_TRANSFORMATION(' ',' ',#273,#307);
#46=ITEM_DEFINED_TRANSFORMATION(' ',' ',#273,#309);
#47=ITEM_DEFINED_TRANSFORMATION(' ',' ',#273,#310);
#48=ITEM_DEFINED_TRANSFORMATION(' ',' ',#273,#311);
#49=ITEM_DEFINED_TRANSFORMATION(' ',' ',#273,#312);
#50=ITEM_DEFINED_TRANSFORMATION(' ',' ',#273,#313);
#51=ITEM_DEFINED_TRANSFORMATION(' ',' ',#273,#314);
#52=SHAPE_REPRESENTATION_RELATIONSHIP('','',#270,#55);
#53=SHAPE_REPRESENTATION_RELATIONSHIP('','',#271,#56);
#54=SHAPE_REPRESENTATION_RELATIONSHIP('','',#272,#57);
#55=ADVANCED_BREP_SHAPE_REPRESENTATION('',(#262),#460);
#56=ADVANCED_BREP_SHAPE_REPRESENTATION('',(#263),#461);
#57=ADVANCED_BREP_SHAPE_REPRESENTATION('',(#264),#462);
#58=PLANE('',#279);
#59=PLANE('',#285);
#60=PLANE('',#289);
#61=PLANE('',#294);
#62=PLANE('',#298);
#63=PLANE('',#304);
#64=TOROIDAL_SURFACE('',#277,15.4,0.6);
#65=TOROIDAL_SURFACE('',#281,9.1,0.600000000000001);
#66=TOROIDAL_SURFACE('',#287,11.75,3.36);
#67=TOROIDAL_SURFACE('',#296,11.75,3.36);
#68=TOROIDAL_SURFACE('',#302,8.1,0.600000000000002);
#69=TOROIDAL_SURFACE('',#306,15.4,0.600000000000003);
#70=ORIENTED_EDGE('',*,*,#102,.T.);
#71=ORIENTED_EDGE('',*,*,#103,.F.);
#72=ORIENTED_EDGE('',*,*,#104,.T.);
#73=ORIENTED_EDGE('',*,*,#102,.F.);
#74=ORIENTED_EDGE('',*,*,#105,.T.);
#75=ORIENTED_EDGE('',*,*,#104,.F.);
#76=ORIENTED_EDGE('',*,*,#106,.T.);
#77=ORIENTED_EDGE('',*,*,#105,.F.);
#78=ORIENTED_EDGE('',*,*,#107,.T.);
#79=ORIENTED_EDGE('',*,*,#106,.F.);
#80=ORIENTED_EDGE('',*,*,#108,.T.);
#81=ORIENTED_EDGE('',*,*,#107,.F.);
#82=ORIENTED_EDGE('',*,*,#108,.F.);
#83=ORIENTED_EDGE('',*,*,#109,.T.);
#84=ORIENTED_EDGE('',*,*,#103,.T.);
#85=ORIENTED_EDGE('',*,*,#109,.F.);
#86=ORIENTED_EDGE('',*,*,#110,.T.);
#87=ORIENTED_EDGE('',*,*,#111,.F.);
#88=ORIENTED_EDGE('',*,*,#112,.T.);
#89=ORIENTED_EDGE('',*,*,#110,.F.);
#90=ORIENTED_EDGE('',*,*,#112,.F.);
#91=ORIENTED_EDGE('',*,*,#113,.T.);
#92=ORIENTED_EDGE('',*,*,#114,.T.);
#93=ORIENTED_EDGE('',*,*,#113,.F.);
#94=ORIENTED_EDGE('',*,*,#115,.T.);
#95=ORIENTED_EDGE('',*,*,#114,.F.);
#96=ORIENTED_EDGE('',*,*,#116,.T.);
#97=ORIENTED_EDGE('',*,*,#115,.F.);
#98=ORIENTED_EDGE('',*,*,#117,.T.);
#99=ORIENTED_EDGE('',*,*,#116,.F.);
#100=ORIENTED_EDGE('',*,*,#111,.T.);
#101=ORIENTED_EDGE('',*,*,#117,.F.);
#102=EDGE_CURVE('',#118,#118,#135,.T.);
#103=EDGE_CURVE('',#119,#119,#136,.T.);
#104=EDGE_CURVE('',#120,#120,#137,.T.);
#105=EDGE_CURVE('',#121,#121,#138,.T.);
#106=EDGE_CURVE('',#122,#122,#139,.T.);
#107=EDGE_CURVE('',#123,#123,#140,.T.);
#108=EDGE_CURVE('',#124,#124,#141,.T.);
#109=EDGE_CURVE('',#125,#125,#142,.T.);
#110=EDGE_CURVE('',#126,#126,#143,.T.);
#111=EDGE_CURVE('',#127,#127,#144,.T.);
#112=EDGE_CURVE('',#128,#128,#145,.T.);
#113=EDGE_CURVE('',#129,#129,#146,.T.);
#114=EDGE_CURVE('',#130,#130,#147,.T.);
#115=EDGE_CURVE('',#131,#131,#148,.T.);
#116=EDGE_CURVE('',#132,#132,#149,.T.);
#117=EDGE_CURVE('',#133,#133,#150,.T.);
#118=VERTEX_POINT('',#402);
#119=VERTEX_POINT('',#404);
#120=VERTEX_POINT('',#407);
#121=VERTEX_POINT('',#410);
#122=VERTEX_POINT('',#413);
#123=VERTEX_POINT('',#416);
#124=VERTEX_POINT('',#419);
#125=VERTEX_POINT('',#422);
#126=VERTEX_POINT('',#427);
#127=VERTEX_POINT('',#429);
#128=VERTEX_POINT('',#432);
#129=VERTEX_POINT('',#435);
#130=VERTEX_POINT('',#438);
#131=VERTEX_POINT('',#441);
#132=VERTEX_POINT('',#444);
#133=VERTEX_POINT('',#447);
#134=VERTEX_POINT('',#451);
#135=CIRCLE('',#275,16.);
#136=CIRCLE('',#276,16.);
#137=CIRCLE('',#278,15.4);
#138=CIRCLE('',#280,9.1);
#139=CIRCLE('',#282,8.5);
#140=CIRCLE('',#284,8.5);
#141=CIRCLE('',#286,9.05007407509021);
#142=CIRCLE('',#288,14.4499259249098);
#143=CIRCLE('',#292,16.);
#144=CIRCLE('',#293,16.);
#145=CIRCLE('',#295,14.4499259249098);
#146=CIRCLE('',#297,9.05007407509021);
#147=CIRCLE('',#299,7.5);
#148=CIRCLE('',#301,7.5);
#149=CIRCLE('',#303,8.1);
#150=CIRCLE('',#305,15.4);
#151=EDGE_LOOP('',(#70));
#152=EDGE_LOOP('',(#71));
#153=EDGE_LOOP('',(#72));
#154=EDGE_LOOP('',(#73));
#155=EDGE_LOOP('',(#74));
#156=EDGE_LOOP('',(#75));
#157=EDGE_LOOP('',(#76));
#158=EDGE_LOOP('',(#77));
#159=EDGE_LOOP('',(#78));
#160=EDGE_LOOP('',(#79));
#161=EDGE_LOOP('',(#80));
#162=EDGE_LOOP('',(#81));
#163=EDGE_LOOP('',(#82));
#164=EDGE_LOOP('',(#83));
#165=EDGE_LOOP('',(#84));
#166=EDGE_LOOP('',(#85));
#167=EDGE_LOOP('',(#86));
#168=EDGE_LOOP('',(#87));
#169=EDGE_LOOP('',(#88));
#170=EDGE_LOOP('',(#89));
#171=EDGE_LOOP('',(#90));
#172=EDGE_LOOP('',(#91));
#173=EDGE_LOOP('',(#92));
#174=EDGE_LOOP('',(#93));
#175=EDGE_LOOP('',(#94));
#176=EDGE_LOOP('',(#95));
#177=EDGE_LOOP('',(#96));
#178=EDGE_LOOP('',(#97));
#179=EDGE_LOOP('',(#98));
#180=EDGE_LOOP('',(#99));
#181=EDGE_LOOP('',(#100));
#182=EDGE_LOOP('',(#101));
#183=FACE_BOUND('',#151,.T.);
#184=FACE_BOUND('',#152,.T.);
#185=FACE_BOUND('',#153,.T.);
#186=FACE_BOUND('',#154,.T.);
#187=FACE_BOUND('',#155,.T.);
#188=FACE_BOUND('',#156,.T.);
#189=FACE_BOUND('',#157,.T.);
#190=FACE_BOUND('',#158,.T.);
#191=FACE_BOUND('',#159,.T.);
#192=FACE_BOUND('',#160,.T.);
#193=FACE_BOUND('',#161,.T.);
#194=FACE_BOUND('',#162,.T.);
#195=FACE_BOUND('',#163,.T.);
#196=FACE_BOUND('',#164,.T.);
#197=FACE_BOUND('',#165,.T.);
#198=FACE_BOUND('',#166,.T.);
#199=FACE_BOUND('',#167,.T.);
#200=FACE_BOUND('',#168,.T.);
#201=FACE_BOUND('',#169,.T.);
#202=FACE_BOUND('',#170,.T.);
#203=FACE_BOUND('',#171,.T.);
#204=FACE_BOUND('',#172,.T.);
#205=FACE_BOUND('',#173,.T.);
#206=FACE_BOUND('',#174,.T.);
#207=FACE_BOUND('',#175,.T.);
#208=FACE_BOUND('',#176,.T.);
#209=FACE_BOUND('',#177,.T.);
#210=FACE_BOUND('',#178,.T.);
#211=FACE_BOUND('',#179,.T.);
#212=FACE_BOUND('',#180,.T.);
#213=FACE_BOUND('',#181,.T.);
#214=FACE_BOUND('',#182,.T.);
#215=FACE_BOUND('',#18,.T.);
#216=CYLINDRICAL_SURFACE('',#274,16.);
#217=CYLINDRICAL_SURFACE('',#283,8.5);
#218=CYLINDRICAL_SURFACE('',#291,16.);
#219=CYLINDRICAL_SURFACE('',#300,7.5);
#220=ADVANCED_FACE('',(#183,#184),#216,.T.);
#221=ADVANCED_FACE('',(#185,#186),#64,.T.);
#222=ADVANCED_FACE('',(#187,#188),#58,.T.);
#223=ADVANCED_FACE('',(#189,#190),#65,.T.);
#224=ADVANCED_FACE('',(#191,#192),#217,.F.);
#225=ADVANCED_FACE('',(#193,#194),#59,.T.);
#226=ADVANCED_FACE('',(#195,#196),#66,.F.);
#227=ADVANCED_FACE('',(#197,#198),#60,.T.);
#228=ADVANCED_FACE('',(#199,#200),#218,.T.);
#229=ADVANCED_FACE('',(#201,#202),#61,.T.);
#230=ADVANCED_FACE('',(#203,#204),#67,.F.);
#231=ADVANCED_FACE('',(#205,#206),#62,.T.);
#232=ADVANCED_FACE('',(#207,#208),#219,.F.);
#233=ADVANCED_FACE('',(#209,#210),#68,.T.);
#234=ADVANCED_FACE('',(#211,#212),#63,.T.);
#235=ADVANCED_FACE('',(#213,#214),#69,.T.);
#236=ADVANCED_FACE('',(#215),#19,.T.);
#237=CLOSED_SHELL('',(#220,#221,#222,#223,#224,#225,#226,#227));
#238=CLOSED_SHELL('',(#228,#229,#230,#231,#232,#233,#234,#235));
#239=CLOSED_SHELL('',(#236));
#240=STYLED_ITEM('',(#243),#262);
#241=STYLED_ITEM('',(#244),#263);
#242=STYLED_ITEM('',(#245),#264);
#243=PRESENTATION_STYLE_ASSIGNMENT((#246));
#244=PRESENTATION_STYLE_ASSIGNMENT((#247));
#245=PRESENTATION_STYLE_ASSIGNMENT((#248));
#246=SURFACE_STYLE_USAGE(.BOTH.,#249);
#247=SURFACE_STYLE_USAGE(.BOTH.,#250);
#248=SURFACE_STYLE_USAGE(.BOTH.,#251);
#249=SURFACE_SIDE_STYLE('',(#252));
#250=SURFACE_SIDE_STYLE('',(#253));
#251=SURFACE_SIDE_STYLE('',(#254));
#252=SURFACE_STYLE_FILL_AREA(#255);
#253=SURFACE_STYLE_FILL_AREA(#256);
#254=SURFACE_STYLE_FILL_AREA(#257);
#255=FILL_AREA_STYLE('',(#258));
#256=FILL_AREA_STYLE('',(#259));
#257=FILL_AREA_STYLE('',(#260));
#258=FILL_AREA_STYLE_COLOUR('',#261);
#259=FILL_AREA_STYLE_COLOUR('',#261);
#260=FILL_AREA_STYLE_COLOUR('',#261);
#261=COLOUR_RGB('',0.689999997615814,0.689999997615814,0.689999997615814);
#262=MANIFOLD_SOLID_BREP('51202 Housing raceway disc',#237);
#263=MANIFOLD_SOLID_BREP('51202 Shaft raceway disc',#238);
#264=MANIFOLD_SOLID_BREP('51202 Ball',#239);
#265=SHAPE_DEFINITION_REPRESENTATION(#470,#269);
#266=SHAPE_DEFINITION_REPRESENTATION(#471,#270);
#267=SHAPE_DEFINITION_REPRESENTATION(#473,#271);
#268=SHAPE_DEFINITION_REPRESENTATION(#475,#272);
#269=SHAPE_REPRESENTATION('51202',(#273,#290,#307,#309,#310,#311,#312,#313,
#314),#459);
#270=SHAPE_REPRESENTATION('51202 Housing raceway disc',(#273),#460);
#271=SHAPE_REPRESENTATION('51202 Shaft raceway disc',(#273),#461);
#272=SHAPE_REPRESENTATION('51202 Ball',(#273),#462);
#273=AXIS2_PLACEMENT_3D('',#399,#315,#316);
#274=AXIS2_PLACEMENT_3D('',#400,#317,#318);
#275=AXIS2_PLACEMENT_3D('',#401,#319,#320);
#276=AXIS2_PLACEMENT_3D('',#403,#321,#322);
#277=AXIS2_PLACEMENT_3D('',#405,#323,#324);
#278=AXIS2_PLACEMENT_3D('',#406,#325,#326);
#279=AXIS2_PLACEMENT_3D('',#408,#327,#328);
#280=AXIS2_PLACEMENT_3D('',#409,#329,#330);
#281=AXIS2_PLACEMENT_3D('',#411,#331,#332);
#282=AXIS2_PLACEMENT_3D('',#412,#333,#334);
#283=AXIS2_PLACEMENT_3D('',#414,#335,#336);
#284=AXIS2_PLACEMENT_3D('',#415,#337,#338);
#285=AXIS2_PLACEMENT_3D('',#417,#339,#340);
#286=AXIS2_PLACEMENT_3D('',#418,#341,#342);
#287=AXIS2_PLACEMENT_3D('',#420,#343,#344);
#288=AXIS2_PLACEMENT_3D('',#421,#345,#346);
#289=AXIS2_PLACEMENT_3D('',#423,#347,#348);
#290=AXIS2_PLACEMENT_3D('',#424,#349,#350);
#291=AXIS2_PLACEMENT_3D('',#425,#351,#352);
#292=AXIS2_PLACEMENT_3D('',#426,#353,#354);
#293=AXIS2_PLACEMENT_3D('',#428,#355,#356);
#294=AXIS2_PLACEMENT_3D('',#430,#357,#358);
#295=AXIS2_PLACEMENT_3D('',#431,#359,#360);
#296=AXIS2_PLACEMENT_3D('',#433,#361,#362);
#297=AXIS2_PLACEMENT_3D('',#434,#363,#364);
#298=AXIS2_PLACEMENT_3D('',#436,#365,#366);
#299=AXIS2_PLACEMENT_3D('',#437,#367,#368);
#300=AXIS2_PLACEMENT_3D('',#439,#369,#370);
#301=AXIS2_PLACEMENT_3D('',#440,#371,#372);
#302=AXIS2_PLACEMENT_3D('',#442,#373,#374);
#303=AXIS2_PLACEMENT_3D('',#443,#375,#376);
#304=AXIS2_PLACEMENT_3D('',#445,#377,#378);
#305=AXIS2_PLACEMENT_3D('',#446,#379,#380);
#306=AXIS2_PLACEMENT_3D('',#448,#381,#382);
#307=AXIS2_PLACEMENT_3D('',#449,#383,#384);
#308=AXIS2_PLACEMENT_3D('',#450,#385,#386);
#309=AXIS2_PLACEMENT_3D('',#452,#387,#388);
#310=AXIS2_PLACEMENT_3D('',#453,#389,#390);
#311=AXIS2_PLACEMENT_3D('',#454,#391,#392);
#312=AXIS2_PLACEMENT_3D('',#455,#393,#394);
#313=AXIS2_PLACEMENT_3D('',#456,#395,#396);
#314=AXIS2_PLACEMENT_3D('',#457,#397,#398);
#315=DIRECTION('',(0.,0.,1.));
#316=DIRECTION('',(1.,0.,0.));
#317=DIRECTION('',(6.12323399573677E-17,1.,0.));
#318=DIRECTION('',(-1.,6.12323399573677E-17,0.));
#319=DIRECTION('',(6.12323399573677E-17,1.,0.));
#320=DIRECTION('',(-1.,6.12323399573677E-17,0.));
#321=DIRECTION('',(6.12323399573677E-17,1.,0.));
#322=DIRECTION('',(-1.,6.12323399573677E-17,0.));
#323=DIRECTION('',(6.12323399573677E-17,1.,0.));
#324=DIRECTION('',(-1.,6.12323399573677E-17,0.));
#325=DIRECTION('',(6.12323399573677E-17,1.,0.));
#326=DIRECTION('',(-1.,6.12323399573677E-17,0.));
#327=DIRECTION('',(-6.12323399573677E-17,-1.,0.));
#328=DIRECTION('',(1.,-6.12323399573677E-17,0.));
#329=DIRECTION('',(6.12323399573677E-17,1.,0.));
#330=DIRECTION('',(-1.,6.12323399573677E-17,0.));
#331=DIRECTION('',(6.12323399573677E-17,1.,0.));
#332=DIRECTION('',(-1.,6.12323399573677E-17,0.));
#333=DIRECTION('',(6.12323399573677E-17,1.,0.));
#334=DIRECTION('',(-1.,6.12323399573677E-17,0.));
#335=DIRECTION('',(6.12323399573677E-17,1.,0.));
#336=DIRECTION('',(-1.,6.12323399573677E-17,0.));
#337=DIRECTION('',(6.12323399573677E-17,1.,0.));
#338=DIRECTION('',(-1.,6.12323399573677E-17,0.));
#339=DIRECTION('',(6.12323399573677E-17,1.,0.));
#340=DIRECTION('',(-1.,6.12323399573677E-17,0.));
#341=DIRECTION('',(6.12323399573677E-17,1.,0.));
#342=DIRECTION('',(-1.,6.12323399573677E-17,0.));
#343=DIRECTION('',(6.12323399573677E-17,1.,0.));
#344=DIRECTION('',(-1.,6.12323399573677E-17,0.));
#345=DIRECTION('',(6.12323399573677E-17,1.,0.));
#346=DIRECTION('',(-1.,6.12323399573677E-17,0.));
#347=DIRECTION('',(6.12323399573677E-17,1.,0.));
#348=DIRECTION('',(-1.,6.12323399573677E-17,0.));
#349=DIRECTION('',(0.,0.,1.));
#350=DIRECTION('',(1.,0.,0.));
#351=DIRECTION('',(6.12323399573677E-17,1.,0.));
#352=DIRECTION('',(-1.,6.12323399573677E-17,0.));
#353=DIRECTION('',(6.12323399573677E-17,1.,0.));
#354=DIRECTION('',(-1.,6.12323399573677E-17,0.));
#355=DIRECTION('',(6.12323399573677E-17,1.,0.));
#356=DIRECTION('',(-1.,6.12323399573677E-17,0.));
#357=DIRECTION('',(-6.12323399573677E-17,-1.,0.));
#358=DIRECTION('',(1.,-6.12323399573677E-17,0.));
#359=DIRECTION('',(6.12323399573677E-17,1.,0.));
#360=DIRECTION('',(-1.,6.12323399573677E-17,0.));
#361=DIRECTION('',(6.12323399573677E-17,1.,0.));
#362=DIRECTION('',(-1.,6.12323399573677E-17,0.));
#363=DIRECTION('',(6.12323399573677E-17,1.,0.));
#364=DIRECTION('',(-1.,6.12323399573677E-17,0.));
#365=DIRECTION('',(-6.12323399573677E-17,-1.,0.));
#366=DIRECTION('',(1.,-6.12323399573677E-17,0.));
#367=DIRECTION('',(6.12323399573677E-17,1.,0.));
#368=DIRECTION('',(-1.,6.12323399573677E-17,0.));
#369=DIRECTION('',(6.12323399573677E-17,1.,0.));
#370=DIRECTION('',(-1.,6.12323399573677E-17,0.));
#371=DIRECTION('',(6.12323399573677E-17,1.,0.));
#372=DIRECTION('',(-1.,6.12323399573677E-17,0.));
#373=DIRECTION('',(6.12323399573677E-17,1.,0.));
#374=DIRECTION('',(-1.,6.12323399573677E-17,0.));
#375=DIRECTION('',(6.12323399573677E-17,1.,0.));
#376=DIRECTION('',(-1.,6.12323399573677E-17,0.));
#377=DIRECTION('',(6.12323399573677E-17,1.,0.));
#378=DIRECTION('',(-1.,6.12323399573677E-17,0.));
#379=DIRECTION('',(6.12323399573677E-17,1.,0.));
#380=DIRECTION('',(-1.,6.12323399573677E-17,0.));
#381=DIRECTION('',(6.12323399573677E-17,1.,0.));
#382=DIRECTION('',(-1.,6.12323399573677E-17,0.));
#383=DIRECTION('',(1.,0.,0.));
#384=DIRECTION('',(0.,0.,-1.));
#385=DIRECTION('',(1.,0.,0.));
#386=DIRECTION('',(0.,-1.,0.));
#387=DIRECTION('',(0.,0.,1.));
#388=DIRECTION('',(0.,-1.,0.));
#389=DIRECTION('',(0.,0.,1.));
#390=DIRECTION('',(0.,-1.,0.));
#391=DIRECTION('',(0.,0.,1.));
#392=DIRECTION('',(0.,-1.,0.));
#393=DIRECTION('',(0.,0.,1.));
#394=DIRECTION('',(0.,-1.,0.));
#395=DIRECTION('',(0.,0.,1.));
#396=DIRECTION('',(0.,-1.,0.));
#397=DIRECTION('',(0.,0.,1.));
#398=DIRECTION('',(0.,-1.,0.));
#399=CARTESIAN_POINT('',(0.,0.,0.));
#400=CARTESIAN_POINT('',(2.44929359829471E-16,4.,0.));
#401=CARTESIAN_POINT('',(3.67394039744206E-17,0.6,0.));
#402=CARTESIAN_POINT('',(-16.,0.600000000000001,0.));
#403=CARTESIAN_POINT('',(2.44929359829471E-16,4.,0.));
#404=CARTESIAN_POINT('',(-16.,4.,0.));
#405=CARTESIAN_POINT('',(0.,0.599999999999999,0.));
#406=CARTESIAN_POINT('',(-4.81482486096809E-32,-8.67361737988404E-16,0.));
#407=CARTESIAN_POINT('',(-15.4,7.56162973550584E-17,0.));
#408=CARTESIAN_POINT('',(-15.4,5.79909234920281E-16,0.));
#409=CARTESIAN_POINT('',(0.,0.,0.));
#410=CARTESIAN_POINT('',(-9.1,5.57214293612046E-16,0.));
#411=CARTESIAN_POINT('',(0.,0.600000000000001,0.));
#412=CARTESIAN_POINT('',(3.67394039744206E-17,0.6,0.));
#413=CARTESIAN_POINT('',(-8.5,0.600000000000001,0.));
#414=CARTESIAN_POINT('',(2.44929359829471E-16,4.,0.));
#415=CARTESIAN_POINT('',(2.44929359829471E-16,4.,0.));
#416=CARTESIAN_POINT('',(-8.5,4.,0.));
#417=CARTESIAN_POINT('',(-8.5,4.,0.));
#418=CARTESIAN_POINT('',(2.44929359829471E-16,4.,0.));
#419=CARTESIAN_POINT('',(-9.05007407509021,4.,0.));
#420=CARTESIAN_POINT('',(0.,6.,0.));
#421=CARTESIAN_POINT('',(2.44929359829471E-16,4.,0.));
#422=CARTESIAN_POINT('',(-14.4499259249098,4.,0.));
#423=CARTESIAN_POINT('',(-14.4499259249098,4.,0.));
#424=CARTESIAN_POINT('',(0.,0.,0.));
#425=CARTESIAN_POINT('',(7.34788079488412E-16,12.,0.));
#426=CARTESIAN_POINT('',(4.89858719658941E-16,8.,0.));
#427=CARTESIAN_POINT('',(-16.,8.,0.));
#428=CARTESIAN_POINT('',(6.98048675513991E-16,11.4,0.));
#429=CARTESIAN_POINT('',(-16.,11.4,0.));
#430=CARTESIAN_POINT('',(-16.,8.,0.));
#431=CARTESIAN_POINT('',(4.89858719658941E-16,8.,0.));
#432=CARTESIAN_POINT('',(-14.4499259249098,8.,0.));
#433=CARTESIAN_POINT('',(0.,6.,0.));
#434=CARTESIAN_POINT('',(4.89858719658941E-16,8.,0.));
#435=CARTESIAN_POINT('',(-9.05007407509021,8.,0.));
#436=CARTESIAN_POINT('',(-9.05007407509021,8.,0.));
#437=CARTESIAN_POINT('',(4.89858719658941E-16,8.,0.));
#438=CARTESIAN_POINT('',(-7.5,8.,0.));
#439=CARTESIAN_POINT('',(7.34788079488412E-16,12.,0.));
#440=CARTESIAN_POINT('',(6.98048675513991E-16,11.4,0.));
#441=CARTESIAN_POINT('',(-7.5,11.4,0.));
#442=CARTESIAN_POINT('',(0.,11.4,0.));
#443=CARTESIAN_POINT('',(7.34788079488412E-16,12.,0.));
#444=CARTESIAN_POINT('',(-8.1,12.,0.));
#445=CARTESIAN_POINT('',(-8.1,12.,0.));
#446=CARTESIAN_POINT('',(7.34788079488412E-16,12.,0.));
#447=CARTESIAN_POINT('',(-15.4,12.,0.));
#448=CARTESIAN_POINT('',(0.,11.4,0.));
#449=CARTESIAN_POINT('',(0.,0.,0.));
#450=CARTESIAN_POINT('',(-2.16840434497101E-16,4.33680868994202E-16,0.));
#451=CARTESIAN_POINT('',(-3.36,2.27940206737446E-16,0.));
#452=CARTESIAN_POINT('',(-11.75,6.,0.));
#453=CARTESIAN_POINT('',(-5.875,6.,10.1757984944672));
#454=CARTESIAN_POINT('',(5.875,6.,10.1757984944672));
#455=CARTESIAN_POINT('',(11.75,6.,2.66453525910038E-15));
#456=CARTESIAN_POINT('',(5.875,6.,-10.1757984944672));
#457=CARTESIAN_POINT('',(-5.875,6.,-10.1757984944672));
#458=MECHANICAL_DESIGN_GEOMETRIC_PRESENTATION_REPRESENTATION('',(#240,#241,
#242),#459);
#459=(
GEOMETRIC_REPRESENTATION_CONTEXT(3)
GLOBAL_UNCERTAINTY_ASSIGNED_CONTEXT((#463))
GLOBAL_UNIT_ASSIGNED_CONTEXT((#469,#468,#467))
REPRESENTATION_CONTEXT('51202','TOP_LEVEL_ASSEMBLY_PART')
);
#460=(
GEOMETRIC_REPRESENTATION_CONTEXT(3)
GLOBAL_UNCERTAINTY_ASSIGNED_CONTEXT((#464))
GLOBAL_UNIT_ASSIGNED_CONTEXT((#469,#468,#467))
REPRESENTATION_CONTEXT('51202 Housing raceway disc','COMPONENT_PART')
);
#461=(
GEOMETRIC_REPRESENTATION_CONTEXT(3)
GLOBAL_UNCERTAINTY_ASSIGNED_CONTEXT((#465))
GLOBAL_UNIT_ASSIGNED_CONTEXT((#469,#468,#467))
REPRESENTATION_CONTEXT('51202 Shaft raceway disc','COMPONENT_PART')
);
#462=(
GEOMETRIC_REPRESENTATION_CONTEXT(3)
GLOBAL_UNCERTAINTY_ASSIGNED_CONTEXT((#466))
GLOBAL_UNIT_ASSIGNED_CONTEXT((#469,#468,#467))
REPRESENTATION_CONTEXT('51202 Ball','COMPONENT_PART')
);
#463=UNCERTAINTY_MEASURE_WITH_UNIT(LENGTH_MEASURE(0.005),#469,
'DISTANCE_ACCURACY_VALUE','Maximum Tolerance applied to model');
#464=UNCERTAINTY_MEASURE_WITH_UNIT(LENGTH_MEASURE(0.005),#469,
'DISTANCE_ACCURACY_VALUE','Maximum Tolerance applied to model');
#465=UNCERTAINTY_MEASURE_WITH_UNIT(LENGTH_MEASURE(0.005),#469,
'DISTANCE_ACCURACY_VALUE','Maximum Tolerance applied to model');
#466=UNCERTAINTY_MEASURE_WITH_UNIT(LENGTH_MEASURE(0.005),#469,
'DISTANCE_ACCURACY_VALUE','Maximum Tolerance applied to model');
#467=(
NAMED_UNIT(*)
SI_UNIT($,.STERADIAN.)
SOLID_ANGLE_UNIT()
);
#468=(
NAMED_UNIT(*)
PLANE_ANGLE_UNIT()
SI_UNIT($,.RADIAN.)
);
#469=(
LENGTH_UNIT()
NAMED_UNIT(*)
SI_UNIT(.MILLI.,.METRE.)
);
#470=PRODUCT_DEFINITION_SHAPE('','',#482);
#471=PRODUCT_DEFINITION_SHAPE('','',#483);
#472=PRODUCT_DEFINITION_SHAPE(' ','NAUO PRDDFN',#28);
#473=PRODUCT_DEFINITION_SHAPE('','',#484);
#474=PRODUCT_DEFINITION_SHAPE(' ','NAUO PRDDFN',#29);
#475=PRODUCT_DEFINITION_SHAPE('','',#485);
#476=PRODUCT_DEFINITION_SHAPE(' ','NAUO PRDDFN',#30);
#477=PRODUCT_DEFINITION_SHAPE(' ','NAUO PRDDFN',#31);
#478=PRODUCT_DEFINITION_SHAPE(' ','NAUO PRDDFN',#32);
#479=PRODUCT_DEFINITION_SHAPE(' ','NAUO PRDDFN',#33);
#480=PRODUCT_DEFINITION_SHAPE(' ','NAUO PRDDFN',#34);
#481=PRODUCT_DEFINITION_SHAPE(' ','NAUO PRDDFN',#35);
#482=PRODUCT_DEFINITION('','',#490,#486);
#483=PRODUCT_DEFINITION('','',#491,#487);
#484=PRODUCT_DEFINITION('','',#492,#488);
#485=PRODUCT_DEFINITION('','',#493,#489);
#486=PRODUCT_DEFINITION_CONTEXT('',#511,'design');
#487=PRODUCT_DEFINITION_CONTEXT('',#511,'design');
#488=PRODUCT_DEFINITION_CONTEXT('',#511,'design');
#489=PRODUCT_DEFINITION_CONTEXT('',#511,'design');
#490=PRODUCT_DEFINITION_FORMATION_WITH_SPECIFIED_SOURCE('','',#498,
 .NOT_KNOWN.);
#491=PRODUCT_DEFINITION_FORMATION_WITH_SPECIFIED_SOURCE('','',#499,
 .NOT_KNOWN.);
#492=PRODUCT_DEFINITION_FORMATION_WITH_SPECIFIED_SOURCE('','',#500,
 .NOT_KNOWN.);
#493=PRODUCT_DEFINITION_FORMATION_WITH_SPECIFIED_SOURCE('','',#501,
 .NOT_KNOWN.);
#494=PRODUCT_RELATED_PRODUCT_CATEGORY('','',(#498));
#495=PRODUCT_RELATED_PRODUCT_CATEGORY('','',(#499));
#496=PRODUCT_RELATED_PRODUCT_CATEGORY('','',(#500));
#497=PRODUCT_RELATED_PRODUCT_CATEGORY('','',(#501));
#498=PRODUCT('51202','51202','51202',(#506));
#499=PRODUCT('51202 Housing raceway disc','51202 Housing raceway disc',
'51202 Housing raceway disc',(#507));
#500=PRODUCT('51202 Shaft raceway disc','51202 Shaft raceway disc',
'51202 Shaft raceway disc',(#508));
#501=PRODUCT('51202 Ball','51202 Ball','51202 Ball',(#509));
#502=PRODUCT_CATEGORY('','');
#503=PRODUCT_CATEGORY('','');
#504=PRODUCT_CATEGORY('','');
#505=PRODUCT_CATEGORY('','');
#506=PRODUCT_CONTEXT('',#511,'mechanical');
#507=PRODUCT_CONTEXT('',#511,'mechanical');
#508=PRODUCT_CONTEXT('',#511,'mechanical');
#509=PRODUCT_CONTEXT('',#511,'mechanical');
#510=APPLICATION_PROTOCOL_DEFINITION('international standard',
'automotive_design',2010,#511);
#511=APPLICATION_CONTEXT(
'core data for automotive mechanical design processes');
ENDSEC;
END-ISO-10303-21;
