ISO-10303-21;
HEADER;
/* Generated by software containing ST-Developer
 * from STEP Tools, Inc. (www.steptools.com) 
 */
/* OPTION: using custom renumber hook */

FILE_DESCRIPTION(
/* description */ ('STEP AP214'),
/* implementation_level */ '2;1');

FILE_NAME(
/* name */ '7209B',
/* time_stamp */ '2025-09-23T17:23:08+02:00',
/* author */ ('License CC BY-ND 4.0'),
/* organization */ ('CADENAS'),
/* preprocessor_version */ 'ST-DEVELOPER v19.3',
/* originating_system */ 'PARTsolutions',
/* authorisation */ '  ');

FILE_SCHEMA (('AUTOMOTIVE_DESIGN {1 0 10303 214 3 1 1}'));
ENDSEC;

DATA;
#10=PROPERTY_DEFINITION_REPRESENTATION(#14,#12);
#11=PROPERTY_DEFINITION_REPRESENTATION(#15,#13);
#12=REPRESENTATION('',(#16),#491);
#13=REPRESENTATION('',(#17),#491);
#14=PROPERTY_DEFINITION('pmi validation property','',#502);
#15=PROPERTY_DEFINITION('pmi validation property','',#502);
#16=VALUE_REPRESENTATION_ITEM('number of annotations',COUNT_MEASURE(0.));
#17=VALUE_REPRESENTATION_ITEM('number of views',COUNT_MEASURE(0.));
#18=VERTEX_LOOP('',#150);
#19=SPHERICAL_SURFACE('',#324,5.91);
#20=CONICAL_SURFACE('',#316,38.2875,0.127504298027818);
#21=CONTEXT_DEPENDENT_SHAPE_REPRESENTATION(#45,#504);
#22=CONTEXT_DEPENDENT_SHAPE_REPRESENTATION(#46,#506);
#23=CONTEXT_DEPENDENT_SHAPE_REPRESENTATION(#47,#508);
#24=CONTEXT_DEPENDENT_SHAPE_REPRESENTATION(#48,#509);
#25=CONTEXT_DEPENDENT_SHAPE_REPRESENTATION(#49,#510);
#26=CONTEXT_DEPENDENT_SHAPE_REPRESENTATION(#50,#511);
#27=CONTEXT_DEPENDENT_SHAPE_REPRESENTATION(#51,#512);
#28=CONTEXT_DEPENDENT_SHAPE_REPRESENTATION(#52,#513);
#29=CONTEXT_DEPENDENT_SHAPE_REPRESENTATION(#53,#514);
#30=CONTEXT_DEPENDENT_SHAPE_REPRESENTATION(#54,#515);
#31=CONTEXT_DEPENDENT_SHAPE_REPRESENTATION(#55,#516);
#32=CONTEXT_DEPENDENT_SHAPE_REPRESENTATION(#56,#517);
#33=NEXT_ASSEMBLY_USAGE_OCCURRENCE('NAUO1','7209B0 Inner ring',
'7209B0 Inner ring',#518,#519,'');
#34=NEXT_ASSEMBLY_USAGE_OCCURRENCE('NAUO2','7209B0 Outer ring',
'7209B0 Outer ring',#518,#520,'');
#35=NEXT_ASSEMBLY_USAGE_OCCURRENCE('NAUO3','7209B0 Ball','7209B0 Ball',
#518,#521,'');
#36=NEXT_ASSEMBLY_USAGE_OCCURRENCE('NAUO4','7209B0 Ball','7209B0 Ball',
#518,#521,'');
#37=NEXT_ASSEMBLY_USAGE_OCCURRENCE('NAUO5','7209B0 Ball','7209B0 Ball',
#518,#521,'');
#38=NEXT_ASSEMBLY_USAGE_OCCURRENCE('NAUO6','7209B0 Ball','7209B0 Ball',
#518,#521,'');
#39=NEXT_ASSEMBLY_USAGE_OCCURRENCE('NAUO7','7209B0 Ball','7209B0 Ball',
#518,#521,'');
#40=NEXT_ASSEMBLY_USAGE_OCCURRENCE('NAUO8','7209B0 Ball','7209B0 Ball',
#518,#521,'');
#41=NEXT_ASSEMBLY_USAGE_OCCURRENCE('NAUO9','7209B0 Ball','7209B0 Ball',
#518,#521,'');
#42=NEXT_ASSEMBLY_USAGE_OCCURRENCE('NAUO10','7209B0 Ball','7209B0 Ball',
#518,#521,'');
#43=NEXT_ASSEMBLY_USAGE_OCCURRENCE('NAUO11','7209B0 Ball','7209B0 Ball',
#518,#521,'');
#44=NEXT_ASSEMBLY_USAGE_OCCURRENCE('NAUO12','7209B0 Ball','7209B0 Ball',
#518,#521,'');
#45=(
REPRESENTATION_RELATIONSHIP(' ',' ',#286,#285)
REPRESENTATION_RELATIONSHIP_WITH_TRANSFORMATION(#57)
SHAPE_REPRESENTATION_RELATIONSHIP()
);
#46=(
REPRESENTATION_RELATIONSHIP(' ',' ',#287,#285)
REPRESENTATION_RELATIONSHIP_WITH_TRANSFORMATION(#58)
SHAPE_REPRESENTATION_RELATIONSHIP()
);
#47=(
REPRESENTATION_RELATIONSHIP(' ',' ',#288,#285)
REPRESENTATION_RELATIONSHIP_WITH_TRANSFORMATION(#59)
SHAPE_REPRESENTATION_RELATIONSHIP()
);
#48=(
REPRESENTATION_RELATIONSHIP(' ',' ',#288,#285)
REPRESENTATION_RELATIONSHIP_WITH_TRANSFORMATION(#60)
SHAPE_REPRESENTATION_RELATIONSHIP()
);
#49=(
REPRESENTATION_RELATIONSHIP(' ',' ',#288,#285)
REPRESENTATION_RELATIONSHIP_WITH_TRANSFORMATION(#61)
SHAPE_REPRESENTATION_RELATIONSHIP()
);
#50=(
REPRESENTATION_RELATIONSHIP(' ',' ',#288,#285)
REPRESENTATION_RELATIONSHIP_WITH_TRANSFORMATION(#62)
SHAPE_REPRESENTATION_RELATIONSHIP()
);
#51=(
REPRESENTATION_RELATIONSHIP(' ',' ',#288,#285)
REPRESENTATION_RELATIONSHIP_WITH_TRANSFORMATION(#63)
SHAPE_REPRESENTATION_RELATIONSHIP()
);
#52=(
REPRESENTATION_RELATIONSHIP(' ',' ',#288,#285)
REPRESENTATION_RELATIONSHIP_WITH_TRANSFORMATION(#64)
SHAPE_REPRESENTATION_RELATIONSHIP()
);
#53=(
REPRESENTATION_RELATIONSHIP(' ',' ',#288,#285)
REPRESENTATION_RELATIONSHIP_WITH_TRANSFORMATION(#65)
SHAPE_REPRESENTATION_RELATIONSHIP()
);
#54=(
REPRESENTATION_RELATIONSHIP(' ',' ',#288,#285)
REPRESENTATION_RELATIONSHIP_WITH_TRANSFORMATION(#66)
SHAPE_REPRESENTATION_RELATIONSHIP()
);
#55=(
REPRESENTATION_RELATIONSHIP(' ',' ',#288,#285)
REPRESENTATION_RELATIONSHIP_WITH_TRANSFORMATION(#67)
SHAPE_REPRESENTATION_RELATIONSHIP()
);
#56=(
REPRESENTATION_RELATIONSHIP(' ',' ',#288,#285)
REPRESENTATION_RELATIONSHIP_WITH_TRANSFORMATION(#68)
SHAPE_REPRESENTATION_RELATIONSHIP()
);
#57=ITEM_DEFINED_TRANSFORMATION(' ',' ',#289,#306);
#58=ITEM_DEFINED_TRANSFORMATION(' ',' ',#289,#323);
#59=ITEM_DEFINED_TRANSFORMATION(' ',' ',#289,#325);
#60=ITEM_DEFINED_TRANSFORMATION(' ',' ',#289,#326);
#61=ITEM_DEFINED_TRANSFORMATION(' ',' ',#289,#327);
#62=ITEM_DEFINED_TRANSFORMATION(' ',' ',#289,#328);
#63=ITEM_DEFINED_TRANSFORMATION(' ',' ',#289,#329);
#64=ITEM_DEFINED_TRANSFORMATION(' ',' ',#289,#330);
#65=ITEM_DEFINED_TRANSFORMATION(' ',' ',#289,#331);
#66=ITEM_DEFINED_TRANSFORMATION(' ',' ',#289,#332);
#67=ITEM_DEFINED_TRANSFORMATION(' ',' ',#289,#333);
#68=ITEM_DEFINED_TRANSFORMATION(' ',' ',#289,#334);
#69=SHAPE_REPRESENTATION_RELATIONSHIP('','',#286,#72);
#70=SHAPE_REPRESENTATION_RELATIONSHIP('','',#287,#73);
#71=SHAPE_REPRESENTATION_RELATIONSHIP('','',#288,#74);
#72=ADVANCED_BREP_SHAPE_REPRESENTATION('',(#278),#492);
#73=ADVANCED_BREP_SHAPE_REPRESENTATION('',(#279),#493);
#74=ADVANCED_BREP_SHAPE_REPRESENTATION('',(#280),#494);
#75=CYLINDRICAL_SURFACE('',#295,22.5);
#76=CYLINDRICAL_SURFACE('',#301,28.9);
#77=CYLINDRICAL_SURFACE('',#305,28.9);
#78=CYLINDRICAL_SURFACE('',#312,36.1);
#79=CYLINDRICAL_SURFACE('',#322,42.5);
#80=TOROIDAL_SURFACE('',#293,23.1,0.600000000000004);
#81=TOROIDAL_SURFACE('',#297,23.6,1.1);
#82=TOROIDAL_SURFACE('',#303,32.5,6.);
#83=TOROIDAL_SURFACE('',#307,41.4,1.1);
#84=TOROIDAL_SURFACE('',#314,32.5,6.00000000000001);
#85=TOROIDAL_SURFACE('',#320,41.9,0.600000000000007);
#86=ORIENTED_EDGE('',*,*,#118,.T.);
#87=ORIENTED_EDGE('',*,*,#119,.F.);
#88=ORIENTED_EDGE('',*,*,#120,.T.);
#89=ORIENTED_EDGE('',*,*,#118,.F.);
#90=ORIENTED_EDGE('',*,*,#121,.T.);
#91=ORIENTED_EDGE('',*,*,#120,.F.);
#92=ORIENTED_EDGE('',*,*,#122,.T.);
#93=ORIENTED_EDGE('',*,*,#121,.F.);
#94=ORIENTED_EDGE('',*,*,#123,.T.);
#95=ORIENTED_EDGE('',*,*,#122,.F.);
#96=ORIENTED_EDGE('',*,*,#124,.T.);
#97=ORIENTED_EDGE('',*,*,#123,.F.);
#98=ORIENTED_EDGE('',*,*,#124,.F.);
#99=ORIENTED_EDGE('',*,*,#125,.T.);
#100=ORIENTED_EDGE('',*,*,#119,.T.);
#101=ORIENTED_EDGE('',*,*,#125,.F.);
#102=ORIENTED_EDGE('',*,*,#126,.T.);
#103=ORIENTED_EDGE('',*,*,#127,.F.);
#104=ORIENTED_EDGE('',*,*,#128,.T.);
#105=ORIENTED_EDGE('',*,*,#126,.F.);
#106=ORIENTED_EDGE('',*,*,#129,.T.);
#107=ORIENTED_EDGE('',*,*,#128,.F.);
#108=ORIENTED_EDGE('',*,*,#129,.F.);
#109=ORIENTED_EDGE('',*,*,#130,.T.);
#110=ORIENTED_EDGE('',*,*,#131,.T.);
#111=ORIENTED_EDGE('',*,*,#130,.F.);
#112=ORIENTED_EDGE('',*,*,#132,.T.);
#113=ORIENTED_EDGE('',*,*,#131,.F.);
#114=ORIENTED_EDGE('',*,*,#133,.T.);
#115=ORIENTED_EDGE('',*,*,#132,.F.);
#116=ORIENTED_EDGE('',*,*,#127,.T.);
#117=ORIENTED_EDGE('',*,*,#133,.F.);
#118=EDGE_CURVE('',#134,#134,#151,.T.);
#119=EDGE_CURVE('',#135,#135,#152,.T.);
#120=EDGE_CURVE('',#136,#136,#153,.T.);
#121=EDGE_CURVE('',#137,#137,#154,.T.);
#122=EDGE_CURVE('',#138,#138,#155,.T.);
#123=EDGE_CURVE('',#139,#139,#156,.T.);
#124=EDGE_CURVE('',#140,#140,#157,.T.);
#125=EDGE_CURVE('',#141,#141,#158,.T.);
#126=EDGE_CURVE('',#142,#142,#159,.T.);
#127=EDGE_CURVE('',#143,#143,#160,.T.);
#128=EDGE_CURVE('',#144,#144,#161,.T.);
#129=EDGE_CURVE('',#145,#145,#162,.T.);
#130=EDGE_CURVE('',#146,#146,#163,.T.);
#131=EDGE_CURVE('',#147,#147,#164,.T.);
#132=EDGE_CURVE('',#148,#148,#165,.T.);
#133=EDGE_CURVE('',#149,#149,#166,.T.);
#134=VERTEX_POINT('',#430);
#135=VERTEX_POINT('',#432);
#136=VERTEX_POINT('',#435);
#137=VERTEX_POINT('',#438);
#138=VERTEX_POINT('',#441);
#139=VERTEX_POINT('',#444);
#140=VERTEX_POINT('',#447);
#141=VERTEX_POINT('',#450);
#142=VERTEX_POINT('',#455);
#143=VERTEX_POINT('',#457);
#144=VERTEX_POINT('',#460);
#145=VERTEX_POINT('',#463);
#146=VERTEX_POINT('',#466);
#147=VERTEX_POINT('',#469);
#148=VERTEX_POINT('',#472);
#149=VERTEX_POINT('',#475);
#150=VERTEX_POINT('',#479);
#151=CIRCLE('',#291,23.1);
#152=CIRCLE('',#292,28.9);
#153=CIRCLE('',#294,22.5);
#154=CIRCLE('',#296,22.5);
#155=CIRCLE('',#298,23.6);
#156=CIRCLE('',#300,28.9);
#157=CIRCLE('',#302,28.9);
#158=CIRCLE('',#304,28.9);
#159=CIRCLE('',#308,41.4);
#160=CIRCLE('',#309,42.5);
#161=CIRCLE('',#311,36.1);
#162=CIRCLE('',#313,36.1);
#163=CIRCLE('',#315,38.2875);
#164=CIRCLE('',#317,39.3025);
#165=CIRCLE('',#319,41.9);
#166=CIRCLE('',#321,42.5);
#167=EDGE_LOOP('',(#86));
#168=EDGE_LOOP('',(#87));
#169=EDGE_LOOP('',(#88));
#170=EDGE_LOOP('',(#89));
#171=EDGE_LOOP('',(#90));
#172=EDGE_LOOP('',(#91));
#173=EDGE_LOOP('',(#92));
#174=EDGE_LOOP('',(#93));
#175=EDGE_LOOP('',(#94));
#176=EDGE_LOOP('',(#95));
#177=EDGE_LOOP('',(#96));
#178=EDGE_LOOP('',(#97));
#179=EDGE_LOOP('',(#98));
#180=EDGE_LOOP('',(#99));
#181=EDGE_LOOP('',(#100));
#182=EDGE_LOOP('',(#101));
#183=EDGE_LOOP('',(#102));
#184=EDGE_LOOP('',(#103));
#185=EDGE_LOOP('',(#104));
#186=EDGE_LOOP('',(#105));
#187=EDGE_LOOP('',(#106));
#188=EDGE_LOOP('',(#107));
#189=EDGE_LOOP('',(#108));
#190=EDGE_LOOP('',(#109));
#191=EDGE_LOOP('',(#110));
#192=EDGE_LOOP('',(#111));
#193=EDGE_LOOP('',(#112));
#194=EDGE_LOOP('',(#113));
#195=EDGE_LOOP('',(#114));
#196=EDGE_LOOP('',(#115));
#197=EDGE_LOOP('',(#116));
#198=EDGE_LOOP('',(#117));
#199=FACE_BOUND('',#167,.T.);
#200=FACE_BOUND('',#168,.T.);
#201=FACE_BOUND('',#169,.T.);
#202=FACE_BOUND('',#170,.T.);
#203=FACE_BOUND('',#171,.T.);
#204=FACE_BOUND('',#172,.T.);
#205=FACE_BOUND('',#173,.T.);
#206=FACE_BOUND('',#174,.T.);
#207=FACE_BOUND('',#175,.T.);
#208=FACE_BOUND('',#176,.T.);
#209=FACE_BOUND('',#177,.T.);
#210=FACE_BOUND('',#178,.T.);
#211=FACE_BOUND('',#179,.T.);
#212=FACE_BOUND('',#180,.T.);
#213=FACE_BOUND('',#181,.T.);
#214=FACE_BOUND('',#182,.T.);
#215=FACE_BOUND('',#183,.T.);
#216=FACE_BOUND('',#184,.T.);
#217=FACE_BOUND('',#185,.T.);
#218=FACE_BOUND('',#186,.T.);
#219=FACE_BOUND('',#187,.T.);
#220=FACE_BOUND('',#188,.T.);
#221=FACE_BOUND('',#189,.T.);
#222=FACE_BOUND('',#190,.T.);
#223=FACE_BOUND('',#191,.T.);
#224=FACE_BOUND('',#192,.T.);
#225=FACE_BOUND('',#193,.T.);
#226=FACE_BOUND('',#194,.T.);
#227=FACE_BOUND('',#195,.T.);
#228=FACE_BOUND('',#196,.T.);
#229=FACE_BOUND('',#197,.T.);
#230=FACE_BOUND('',#198,.T.);
#231=FACE_BOUND('',#18,.T.);
#232=PLANE('',#290);
#233=PLANE('',#299);
#234=PLANE('',#310);
#235=PLANE('',#318);
#236=ADVANCED_FACE('',(#199,#200),#232,.T.);
#237=ADVANCED_FACE('',(#201,#202),#80,.T.);
#238=ADVANCED_FACE('',(#203,#204),#75,.F.);
#239=ADVANCED_FACE('',(#205,#206),#81,.T.);
#240=ADVANCED_FACE('',(#207,#208),#233,.T.);
#241=ADVANCED_FACE('',(#209,#210),#76,.T.);
#242=ADVANCED_FACE('',(#211,#212),#82,.F.);
#243=ADVANCED_FACE('',(#213,#214),#77,.T.);
#244=ADVANCED_FACE('',(#215,#216),#83,.T.);
#245=ADVANCED_FACE('',(#217,#218),#234,.T.);
#246=ADVANCED_FACE('',(#219,#220),#78,.F.);
#247=ADVANCED_FACE('',(#221,#222),#84,.F.);
#248=ADVANCED_FACE('',(#223,#224),#20,.F.);
#249=ADVANCED_FACE('',(#225,#226),#235,.T.);
#250=ADVANCED_FACE('',(#227,#228),#85,.T.);
#251=ADVANCED_FACE('',(#229,#230),#79,.T.);
#252=ADVANCED_FACE('',(#231),#19,.T.);
#253=CLOSED_SHELL('',(#236,#237,#238,#239,#240,#241,#242,#243));
#254=CLOSED_SHELL('',(#244,#245,#246,#247,#248,#249,#250,#251));
#255=CLOSED_SHELL('',(#252));
#256=STYLED_ITEM('',(#259),#278);
#257=STYLED_ITEM('',(#260),#279);
#258=STYLED_ITEM('',(#261),#280);
#259=PRESENTATION_STYLE_ASSIGNMENT((#262));
#260=PRESENTATION_STYLE_ASSIGNMENT((#263));
#261=PRESENTATION_STYLE_ASSIGNMENT((#264));
#262=SURFACE_STYLE_USAGE(.BOTH.,#265);
#263=SURFACE_STYLE_USAGE(.BOTH.,#266);
#264=SURFACE_STYLE_USAGE(.BOTH.,#267);
#265=SURFACE_SIDE_STYLE('',(#268));
#266=SURFACE_SIDE_STYLE('',(#269));
#267=SURFACE_SIDE_STYLE('',(#270));
#268=SURFACE_STYLE_FILL_AREA(#271);
#269=SURFACE_STYLE_FILL_AREA(#272);
#270=SURFACE_STYLE_FILL_AREA(#273);
#271=FILL_AREA_STYLE('',(#274));
#272=FILL_AREA_STYLE('',(#275));
#273=FILL_AREA_STYLE('',(#276));
#274=FILL_AREA_STYLE_COLOUR('',#277);
#275=FILL_AREA_STYLE_COLOUR('',#277);
#276=FILL_AREA_STYLE_COLOUR('',#277);
#277=COLOUR_RGB('',0.689999997615814,0.689999997615814,0.689999997615814);
#278=MANIFOLD_SOLID_BREP('7209B0 Inner ring',#253);
#279=MANIFOLD_SOLID_BREP('7209B0 Outer ring',#254);
#280=MANIFOLD_SOLID_BREP('7209B0 Ball',#255);
#281=SHAPE_DEFINITION_REPRESENTATION(#502,#285);
#282=SHAPE_DEFINITION_REPRESENTATION(#503,#286);
#283=SHAPE_DEFINITION_REPRESENTATION(#505,#287);
#284=SHAPE_DEFINITION_REPRESENTATION(#507,#288);
#285=SHAPE_REPRESENTATION('7209B',(#289,#306,#323,#325,#326,#327,#328,#329,
#330,#331,#332,#333,#334),#491);
#286=SHAPE_REPRESENTATION('7209B0 Inner ring',(#289),#492);
#287=SHAPE_REPRESENTATION('7209B0 Outer ring',(#289),#493);
#288=SHAPE_REPRESENTATION('7209B0 Ball',(#289),#494);
#289=AXIS2_PLACEMENT_3D('',#427,#335,#336);
#290=AXIS2_PLACEMENT_3D('',#428,#337,#338);
#291=AXIS2_PLACEMENT_3D('',#429,#339,#340);
#292=AXIS2_PLACEMENT_3D('',#431,#341,#342);
#293=AXIS2_PLACEMENT_3D('',#433,#343,#344);
#294=AXIS2_PLACEMENT_3D('',#434,#345,#346);
#295=AXIS2_PLACEMENT_3D('',#436,#347,#348);
#296=AXIS2_PLACEMENT_3D('',#437,#349,#350);
#297=AXIS2_PLACEMENT_3D('',#439,#351,#352);
#298=AXIS2_PLACEMENT_3D('',#440,#353,#354);
#299=AXIS2_PLACEMENT_3D('',#442,#355,#356);
#300=AXIS2_PLACEMENT_3D('',#443,#357,#358);
#301=AXIS2_PLACEMENT_3D('',#445,#359,#360);
#302=AXIS2_PLACEMENT_3D('',#446,#361,#362);
#303=AXIS2_PLACEMENT_3D('',#448,#363,#364);
#304=AXIS2_PLACEMENT_3D('',#449,#365,#366);
#305=AXIS2_PLACEMENT_3D('',#451,#367,#368);
#306=AXIS2_PLACEMENT_3D('',#452,#369,#370);
#307=AXIS2_PLACEMENT_3D('',#453,#371,#372);
#308=AXIS2_PLACEMENT_3D('',#454,#373,#374);
#309=AXIS2_PLACEMENT_3D('',#456,#375,#376);
#310=AXIS2_PLACEMENT_3D('',#458,#377,#378);
#311=AXIS2_PLACEMENT_3D('',#459,#379,#380);
#312=AXIS2_PLACEMENT_3D('',#461,#381,#382);
#313=AXIS2_PLACEMENT_3D('',#462,#383,#384);
#314=AXIS2_PLACEMENT_3D('',#464,#385,#386);
#315=AXIS2_PLACEMENT_3D('',#465,#387,#388);
#316=AXIS2_PLACEMENT_3D('',#467,#389,#390);
#317=AXIS2_PLACEMENT_3D('',#468,#391,#392);
#318=AXIS2_PLACEMENT_3D('',#470,#393,#394);
#319=AXIS2_PLACEMENT_3D('',#471,#395,#396);
#320=AXIS2_PLACEMENT_3D('',#473,#397,#398);
#321=AXIS2_PLACEMENT_3D('',#474,#399,#400);
#322=AXIS2_PLACEMENT_3D('',#476,#401,#402);
#323=AXIS2_PLACEMENT_3D('',#477,#403,#404);
#324=AXIS2_PLACEMENT_3D('',#478,#405,#406);
#325=AXIS2_PLACEMENT_3D('',#480,#407,#408);
#326=AXIS2_PLACEMENT_3D('',#481,#409,#410);
#327=AXIS2_PLACEMENT_3D('',#482,#411,#412);
#328=AXIS2_PLACEMENT_3D('',#483,#413,#414);
#329=AXIS2_PLACEMENT_3D('',#484,#415,#416);
#330=AXIS2_PLACEMENT_3D('',#485,#417,#418);
#331=AXIS2_PLACEMENT_3D('',#486,#419,#420);
#332=AXIS2_PLACEMENT_3D('',#487,#421,#422);
#333=AXIS2_PLACEMENT_3D('',#488,#423,#424);
#334=AXIS2_PLACEMENT_3D('',#489,#425,#426);
#335=DIRECTION('',(0.,0.,1.));
#336=DIRECTION('',(1.,0.,0.));
#337=DIRECTION('',(-1.,0.,0.));
#338=DIRECTION('',(0.,0.,1.));
#339=DIRECTION('',(1.,0.,0.));
#340=DIRECTION('',(0.,0.,-1.));
#341=DIRECTION('',(1.,0.,0.));
#342=DIRECTION('',(0.,0.,-1.));
#343=DIRECTION('',(1.,0.,0.));
#344=DIRECTION('',(0.,0.,-1.));
#345=DIRECTION('',(1.,0.,0.));
#346=DIRECTION('',(0.,0.,-1.));
#347=DIRECTION('',(1.,0.,0.));
#348=DIRECTION('',(0.,0.,-1.));
#349=DIRECTION('',(1.,0.,0.));
#350=DIRECTION('',(0.,0.,-1.));
#351=DIRECTION('',(1.,0.,0.));
#352=DIRECTION('',(0.,0.,-1.));
#353=DIRECTION('',(1.,0.,0.));
#354=DIRECTION('',(0.,0.,-1.));
#355=DIRECTION('',(1.,0.,0.));
#356=DIRECTION('',(0.,0.,-1.));
#357=DIRECTION('',(1.,0.,0.));
#358=DIRECTION('',(0.,0.,-1.));
#359=DIRECTION('',(1.,0.,0.));
#360=DIRECTION('',(0.,0.,-1.));
#361=DIRECTION('',(1.,0.,0.));
#362=DIRECTION('',(0.,0.,-1.));
#363=DIRECTION('',(1.,0.,0.));
#364=DIRECTION('',(0.,0.,-1.));
#365=DIRECTION('',(1.,0.,0.));
#366=DIRECTION('',(0.,0.,-1.));
#367=DIRECTION('',(1.,0.,0.));
#368=DIRECTION('',(0.,0.,-1.));
#369=DIRECTION('',(0.,0.,1.));
#370=DIRECTION('',(1.,0.,0.));
#371=DIRECTION('',(1.,0.,0.));
#372=DIRECTION('',(0.,0.,-1.));
#373=DIRECTION('',(1.,0.,0.));
#374=DIRECTION('',(0.,0.,-1.));
#375=DIRECTION('',(1.,0.,0.));
#376=DIRECTION('',(0.,0.,-1.));
#377=DIRECTION('',(-1.,0.,0.));
#378=DIRECTION('',(0.,0.,1.));
#379=DIRECTION('',(1.,0.,0.));
#380=DIRECTION('',(0.,0.,-1.));
#381=DIRECTION('',(1.,0.,0.));
#382=DIRECTION('',(0.,0.,-1.));
#383=DIRECTION('',(1.,0.,0.));
#384=DIRECTION('',(0.,0.,-1.));
#385=DIRECTION('',(1.,0.,0.));
#386=DIRECTION('',(0.,0.,-1.));
#387=DIRECTION('',(1.,0.,0.));
#388=DIRECTION('',(0.,0.,-1.));
#389=DIRECTION('',(1.,0.,0.));
#390=DIRECTION('',(0.,0.,-1.));
#391=DIRECTION('',(1.,0.,0.));
#392=DIRECTION('',(0.,0.,-1.));
#393=DIRECTION('',(1.,0.,0.));
#394=DIRECTION('',(0.,0.,-1.));
#395=DIRECTION('',(1.,0.,0.));
#396=DIRECTION('',(0.,0.,-1.));
#397=DIRECTION('',(1.,0.,0.));
#398=DIRECTION('',(0.,0.,-1.));
#399=DIRECTION('',(1.,0.,0.));
#400=DIRECTION('',(0.,0.,-1.));
#401=DIRECTION('',(1.,0.,0.));
#402=DIRECTION('',(0.,0.,-1.));
#403=DIRECTION('',(0.,0.,1.));
#404=DIRECTION('',(1.,0.,0.));
#405=DIRECTION('',(1.,0.,0.));
#406=DIRECTION('',(0.,-1.,0.));
#407=DIRECTION('',(0.,0.,1.));
#408=DIRECTION('',(-1.,0.,0.));
#409=DIRECTION('',(0.,0.,1.));
#410=DIRECTION('',(-1.,0.,0.));
#411=DIRECTION('',(0.,0.,1.));
#412=DIRECTION('',(-1.,0.,0.));
#413=DIRECTION('',(0.,0.,1.));
#414=DIRECTION('',(-1.,0.,0.));
#415=DIRECTION('',(0.,0.,1.));
#416=DIRECTION('',(-1.,0.,0.));
#417=DIRECTION('',(0.,0.,1.));
#418=DIRECTION('',(-1.,0.,0.));
#419=DIRECTION('',(0.,0.,1.));
#420=DIRECTION('',(-1.,0.,0.));
#421=DIRECTION('',(0.,0.,1.));
#422=DIRECTION('',(-1.,0.,0.));
#423=DIRECTION('',(0.,0.,1.));
#424=DIRECTION('',(-1.,0.,0.));
#425=DIRECTION('',(0.,0.,1.));
#426=DIRECTION('',(-1.,0.,0.));
#427=CARTESIAN_POINT('',(0.,0.,0.));
#428=CARTESIAN_POINT('',(0.,28.9,0.));
#429=CARTESIAN_POINT('',(0.,0.,0.));
#430=CARTESIAN_POINT('',(0.,0.,-23.1));
#431=CARTESIAN_POINT('',(0.,0.,0.));
#432=CARTESIAN_POINT('',(0.,0.,-28.9));
#433=CARTESIAN_POINT('',(0.600000000000004,0.,0.));
#434=CARTESIAN_POINT('',(0.6,0.,0.));
#435=CARTESIAN_POINT('',(0.6,0.,-22.5));
#436=CARTESIAN_POINT('',(19.,0.,0.));
#437=CARTESIAN_POINT('',(17.9,0.,0.));
#438=CARTESIAN_POINT('',(17.9,0.,-22.5));
#439=CARTESIAN_POINT('',(17.9,0.,0.));
#440=CARTESIAN_POINT('',(19.,0.,0.));
#441=CARTESIAN_POINT('',(19.,0.,-23.6));
#442=CARTESIAN_POINT('',(19.,23.6,0.));
#443=CARTESIAN_POINT('',(19.,0.,0.));
#444=CARTESIAN_POINT('',(19.,0.,-28.9));
#445=CARTESIAN_POINT('',(19.,0.,0.));
#446=CARTESIAN_POINT('',(14.3,0.,0.));
#447=CARTESIAN_POINT('',(14.3,0.,-28.9));
#448=CARTESIAN_POINT('',(9.5,0.,0.));
#449=CARTESIAN_POINT('',(4.7,0.,0.));
#450=CARTESIAN_POINT('',(4.7,0.,-28.9));
#451=CARTESIAN_POINT('',(19.,0.,0.));
#452=CARTESIAN_POINT('',(0.,0.,0.));
#453=CARTESIAN_POINT('',(1.09999999999999,0.,0.));
#454=CARTESIAN_POINT('',(0.,0.,0.));
#455=CARTESIAN_POINT('',(0.,0.,-41.4));
#456=CARTESIAN_POINT('',(1.1,0.,0.));
#457=CARTESIAN_POINT('',(1.1,0.,-42.5));
#458=CARTESIAN_POINT('',(0.,41.4,0.));
#459=CARTESIAN_POINT('',(0.,0.,0.));
#460=CARTESIAN_POINT('',(0.,0.,-36.1));
#461=CARTESIAN_POINT('',(19.,0.,0.));
#462=CARTESIAN_POINT('',(4.7,0.,0.));
#463=CARTESIAN_POINT('',(4.7,0.,-36.1));
#464=CARTESIAN_POINT('',(9.5,0.,0.));
#465=CARTESIAN_POINT('',(11.0826698171128,0.,0.));
#466=CARTESIAN_POINT('',(11.0826698171128,0.,-38.2875));
#467=CARTESIAN_POINT('',(11.0826698171128,0.,0.));
#468=CARTESIAN_POINT('',(19.,0.,0.));
#469=CARTESIAN_POINT('',(19.,0.,-39.3025));
#470=CARTESIAN_POINT('',(19.,39.3025,0.));
#471=CARTESIAN_POINT('',(19.,0.,0.));
#472=CARTESIAN_POINT('',(19.,0.,-41.9));
#473=CARTESIAN_POINT('',(18.4,0.,0.));
#474=CARTESIAN_POINT('',(18.4,0.,0.));
#475=CARTESIAN_POINT('',(18.4,0.,-42.5));
#476=CARTESIAN_POINT('',(19.,0.,0.));
#477=CARTESIAN_POINT('',(0.,0.,0.));
#478=CARTESIAN_POINT('',(0.,4.33680868994202E-16,0.));
#479=CARTESIAN_POINT('',(-5.91,7.17977398461589E-17,0.));
#480=CARTESIAN_POINT('',(9.5,32.5,0.));
#481=CARTESIAN_POINT('',(9.5,26.2930523171858,19.1030206995054));
#482=CARTESIAN_POINT('',(9.5,10.0430523171858,30.9093367795925));
#483=CARTESIAN_POINT('',(9.5,-10.0430523171858,30.9093367795925));
#484=CARTESIAN_POINT('',(9.5,-26.2930523171858,19.1030206995054));
#485=CARTESIAN_POINT('',(9.5,-32.5,3.5527136788005E-15));
#486=CARTESIAN_POINT('',(9.5,-26.2930523171858,-19.1030206995054));
#487=CARTESIAN_POINT('',(9.5,-10.0430523171858,-30.9093367795925));
#488=CARTESIAN_POINT('',(9.5,10.0430523171858,-30.9093367795925));
#489=CARTESIAN_POINT('',(9.5,26.2930523171858,-19.1030206995054));
#490=MECHANICAL_DESIGN_GEOMETRIC_PRESENTATION_REPRESENTATION('',(#256,#257,
#258),#491);
#491=(
GEOMETRIC_REPRESENTATION_CONTEXT(3)
GLOBAL_UNCERTAINTY_ASSIGNED_CONTEXT((#495))
GLOBAL_UNIT_ASSIGNED_CONTEXT((#501,#500,#499))
REPRESENTATION_CONTEXT('7209B','TOP_LEVEL_ASSEMBLY_PART')
);
#492=(
GEOMETRIC_REPRESENTATION_CONTEXT(3)
GLOBAL_UNCERTAINTY_ASSIGNED_CONTEXT((#496))
GLOBAL_UNIT_ASSIGNED_CONTEXT((#501,#500,#499))
REPRESENTATION_CONTEXT('7209B0 Inner ring','COMPONENT_PART')
);
#493=(
GEOMETRIC_REPRESENTATION_CONTEXT(3)
GLOBAL_UNCERTAINTY_ASSIGNED_CONTEXT((#497))
GLOBAL_UNIT_ASSIGNED_CONTEXT((#501,#500,#499))
REPRESENTATION_CONTEXT('7209B0 Outer ring','COMPONENT_PART')
);
#494=(
GEOMETRIC_REPRESENTATION_CONTEXT(3)
GLOBAL_UNCERTAINTY_ASSIGNED_CONTEXT((#498))
GLOBAL_UNIT_ASSIGNED_CONTEXT((#501,#500,#499))
REPRESENTATION_CONTEXT('7209B0 Ball','COMPONENT_PART')
);
#495=UNCERTAINTY_MEASURE_WITH_UNIT(LENGTH_MEASURE(0.005),#501,
'DISTANCE_ACCURACY_VALUE','Maximum Tolerance applied to model');
#496=UNCERTAINTY_MEASURE_WITH_UNIT(LENGTH_MEASURE(0.005),#501,
'DISTANCE_ACCURACY_VALUE','Maximum Tolerance applied to model');
#497=UNCERTAINTY_MEASURE_WITH_UNIT(LENGTH_MEASURE(0.005),#501,
'DISTANCE_ACCURACY_VALUE','Maximum Tolerance applied to model');
#498=UNCERTAINTY_MEASURE_WITH_UNIT(LENGTH_MEASURE(0.005),#501,
'DISTANCE_ACCURACY_VALUE','Maximum Tolerance applied to model');
#499=(
NAMED_UNIT(*)
SI_UNIT($,.STERADIAN.)
SOLID_ANGLE_UNIT()
);
#500=(
NAMED_UNIT(*)
PLANE_ANGLE_UNIT()
SI_UNIT($,.RADIAN.)
);
#501=(
LENGTH_UNIT()
NAMED_UNIT(*)
SI_UNIT(.MILLI.,.METRE.)
);
#502=PRODUCT_DEFINITION_SHAPE('','',#518);
#503=PRODUCT_DEFINITION_SHAPE('','',#519);
#504=PRODUCT_DEFINITION_SHAPE(' ','NAUO PRDDFN',#33);
#505=PRODUCT_DEFINITION_SHAPE('','',#520);
#506=PRODUCT_DEFINITION_SHAPE(' ','NAUO PRDDFN',#34);
#507=PRODUCT_DEFINITION_SHAPE('','',#521);
#508=PRODUCT_DEFINITION_SHAPE(' ','NAUO PRDDFN',#35);
#509=PRODUCT_DEFINITION_SHAPE(' ','NAUO PRDDFN',#36);
#510=PRODUCT_DEFINITION_SHAPE(' ','NAUO PRDDFN',#37);
#511=PRODUCT_DEFINITION_SHAPE(' ','NAUO PRDDFN',#38);
#512=PRODUCT_DEFINITION_SHAPE(' ','NAUO PRDDFN',#39);
#513=PRODUCT_DEFINITION_SHAPE(' ','NAUO PRDDFN',#40);
#514=PRODUCT_DEFINITION_SHAPE(' ','NAUO PRDDFN',#41);
#515=PRODUCT_DEFINITION_SHAPE(' ','NAUO PRDDFN',#42);
#516=PRODUCT_DEFINITION_SHAPE(' ','NAUO PRDDFN',#43);
#517=PRODUCT_DEFINITION_SHAPE(' ','NAUO PRDDFN',#44);
#518=PRODUCT_DEFINITION('','',#526,#522);
#519=PRODUCT_DEFINITION('','',#527,#523);
#520=PRODUCT_DEFINITION('','',#528,#524);
#521=PRODUCT_DEFINITION('','',#529,#525);
#522=PRODUCT_DEFINITION_CONTEXT('',#547,'design');
#523=PRODUCT_DEFINITION_CONTEXT('',#547,'design');
#524=PRODUCT_DEFINITION_CONTEXT('',#547,'design');
#525=PRODUCT_DEFINITION_CONTEXT('',#547,'design');
#526=PRODUCT_DEFINITION_FORMATION_WITH_SPECIFIED_SOURCE('','',#534,
 .NOT_KNOWN.);
#527=PRODUCT_DEFINITION_FORMATION_WITH_SPECIFIED_SOURCE('','',#535,
 .NOT_KNOWN.);
#528=PRODUCT_DEFINITION_FORMATION_WITH_SPECIFIED_SOURCE('','',#536,
 .NOT_KNOWN.);
#529=PRODUCT_DEFINITION_FORMATION_WITH_SPECIFIED_SOURCE('','',#537,
 .NOT_KNOWN.);
#530=PRODUCT_RELATED_PRODUCT_CATEGORY('','',(#534));
#531=PRODUCT_RELATED_PRODUCT_CATEGORY('','',(#535));
#532=PRODUCT_RELATED_PRODUCT_CATEGORY('','',(#536));
#533=PRODUCT_RELATED_PRODUCT_CATEGORY('','',(#537));
#534=PRODUCT('7209B','7209B','7209B',(#542));
#535=PRODUCT('7209B0 Inner ring','7209B0 Inner ring',
'7209B0 Inner ring',(#543));
#536=PRODUCT('7209B0 Outer ring','7209B0 Outer ring',
'7209B0 Outer ring',(#544));
#537=PRODUCT('7209B0 Ball','7209B0 Ball','7209B0 Ball',(#545));
#538=PRODUCT_CATEGORY('','');
#539=PRODUCT_CATEGORY('','');
#540=PRODUCT_CATEGORY('','');
#541=PRODUCT_CATEGORY('','');
#542=PRODUCT_CONTEXT('',#547,'mechanical');
#543=PRODUCT_CONTEXT('',#547,'mechanical');
#544=PRODUCT_CONTEXT('',#547,'mechanical');
#545=PRODUCT_CONTEXT('',#547,'mechanical');
#546=APPLICATION_PROTOCOL_DEFINITION('international standard',
'automotive_design',2010,#547);
#547=APPLICATION_CONTEXT(
'core data for automotive mechanical design processes');
ENDSEC;
END-ISO-10303-21;
