ISO-10303-21;
HEADER;
FILE_DESCRIPTION(('STEP AP214'),'1');
FILE_NAME('skf_thrust_washer_pcmw_264401_5_e.stp','2023-10-30T08:36:16',('TraceParts'),('TraceParts S.A.'),'Spatial InterOp 3D',' ',' ');
FILE_SCHEMA(('AUTOMOTIVE_DESIGN { 1 0 10303 214 1 1 1 1 }'));
ENDSEC;
DATA;
#1=MECHANICAL_DESIGN_GEOMETRIC_PRESENTATION_REPRESENTATION(' ',(#10,#11,#12,#13,#14,#15,#16,#17),#6);
#2=PRODUCT_DEFINITION_CONTEXT('',#18,'design');
#3=APPLICATION_PROTOCOL_DEFINITION('INTERNATIONAL STANDARD','automotive_design',1994,#18);
#4=PRODUCT_CATEGORY_RELATIONSHIP('NONE','NONE',#19,#20);
#5=SHAPE_DEFINITION_REPRESENTATION(#21,#22);
#6= (GEOMETRIC_REPRESENTATION_CONTEXT(3)GLOBAL_UNCERTAINTY_ASSIGNED_CONTEXT((#25))GLOBAL_UNIT_ASSIGNED_CONTEXT((#27,#28,#29))REPRESENTATION_CONTEXT('NONE','WORKSPACE'));
#10=STYLED_ITEM('',(#31),#32);
#11=STYLED_ITEM('',(#33),#34);
#12=STYLED_ITEM('',(#35),#36);
#13=STYLED_ITEM('',(#37),#38);
#14=STYLED_ITEM('',(#39),#40);
#15=STYLED_ITEM('',(#41),#42);
#16=STYLED_ITEM('',(#43),#44);
#17=STYLED_ITEM('',(#45),#46);
#18=APPLICATION_CONTEXT(' ');
#19=PRODUCT_CATEGORY('part','NONE');
#20=PRODUCT_RELATED_PRODUCT_CATEGORY('detail',' ',(#47));
#21=PRODUCT_DEFINITION_SHAPE('NONE','NONE',#48);
#22=ADVANCED_BREP_SHAPE_REPRESENTATION('skf_thrust_washer_pcmw_264401_5_e',(#49,#50),#6);
#25=UNCERTAINTY_MEASURE_WITH_UNIT(LENGTH_MEASURE(1.0E-06),#27,'','');
#27= (CONVERSION_BASED_UNIT('MILLIMETRE',#53)LENGTH_UNIT()NAMED_UNIT(#56));
#28= (NAMED_UNIT(#58)PLANE_ANGLE_UNIT()SI_UNIT($,.RADIAN.));
#29= (NAMED_UNIT(#58)SOLID_ANGLE_UNIT()SI_UNIT($,.STERADIAN.));
#31=PRESENTATION_STYLE_ASSIGNMENT((#64));
#32=ADVANCED_FACE('',(#65),#66,.T.);
#33=PRESENTATION_STYLE_ASSIGNMENT((#67));
#34=ADVANCED_FACE('',(#68),#69,.F.);
#35=PRESENTATION_STYLE_ASSIGNMENT((#70));
#36=ADVANCED_FACE('',(#71),#72,.F.);
#37=PRESENTATION_STYLE_ASSIGNMENT((#73));
#38=ADVANCED_FACE('',(#74),#75,.F.);
#39=PRESENTATION_STYLE_ASSIGNMENT((#76));
#40=ADVANCED_FACE('',(#77),#78,.F.);
#41=PRESENTATION_STYLE_ASSIGNMENT((#79));
#42=ADVANCED_FACE('',(#80),#81,.T.);
#43=PRESENTATION_STYLE_ASSIGNMENT((#82));
#44=ADVANCED_FACE('',(#83,#84,#85),#86,.T.);
#45=PRESENTATION_STYLE_ASSIGNMENT((#87));
#46=ADVANCED_FACE('',(#88,#89,#90),#91,.T.);
#47=PRODUCT('skf_thrust_washer_pcmw_264401_5_e','skf_thrust_washer_pcmw_264401_5_e','PART-skf_thrust_washer_pcmw_264401_5_e-DESC',(#92));
#48=PRODUCT_DEFINITION('','NONE',#93,#2);
#49=MANIFOLD_SOLID_BREP('skf_thrust_washer_pcmw_264401_5_e',#94);
#50=AXIS2_PLACEMENT_3D('',#95,#96,#97);
#53=LENGTH_MEASURE_WITH_UNIT(LENGTH_MEASURE(1.0),#98);
#56=DIMENSIONAL_EXPONENTS(1.0,0.0,0.0,0.0,0.0,0.0,0.0);
#58=DIMENSIONAL_EXPONENTS(0.0,0.0,0.0,0.0,0.0,0.0,0.0);
#64=SURFACE_STYLE_USAGE(.BOTH.,#99);
#65=FACE_OUTER_BOUND('',#100,.T.);
#66=CYLINDRICAL_SURFACE('',#101,22.0);
#67=SURFACE_STYLE_USAGE(.BOTH.,#102);
#68=FACE_OUTER_BOUND('',#103,.T.);
#69=CYLINDRICAL_SURFACE('',#104,13.0);
#70=SURFACE_STYLE_USAGE(.BOTH.,#105);
#71=FACE_OUTER_BOUND('',#106,.T.);
#72=CYLINDRICAL_SURFACE('',#107,1.625);
#73=SURFACE_STYLE_USAGE(.BOTH.,#108);
#74=FACE_OUTER_BOUND('',#109,.T.);
#75=CYLINDRICAL_SURFACE('',#110,1.625);
#76=SURFACE_STYLE_USAGE(.BOTH.,#111);
#77=FACE_OUTER_BOUND('',#112,.T.);
#78=CYLINDRICAL_SURFACE('',#113,13.0);
#79=SURFACE_STYLE_USAGE(.BOTH.,#114);
#80=FACE_OUTER_BOUND('',#115,.T.);
#81=CYLINDRICAL_SURFACE('',#116,22.0);
#82=SURFACE_STYLE_USAGE(.BOTH.,#117);
#83=FACE_BOUND('',#118,.T.);
#84=FACE_BOUND('',#119,.T.);
#85=FACE_OUTER_BOUND('',#120,.T.);
#86=PLANE('',#121);
#87=SURFACE_STYLE_USAGE(.BOTH.,#122);
#88=FACE_BOUND('',#123,.T.);
#89=FACE_BOUND('',#124,.T.);
#90=FACE_OUTER_BOUND('',#125,.T.);
#91=PLANE('',#126);
#92=PRODUCT_CONTEXT('',#18,'mechanical');
#93=PRODUCT_DEFINITION_FORMATION_WITH_SPECIFIED_SOURCE(' ','NONE',#47,.NOT_KNOWN.);
#94=CLOSED_SHELL('',(#32,#34,#36,#38,#40,#42,#44,#46));
#95=CARTESIAN_POINT('',(0.0,0.0,0.0));
#96=DIRECTION('',(0.0,0.0,1.0));
#97=DIRECTION('',(1.0,0.0,0.0));
#98= (NAMED_UNIT(#56)LENGTH_UNIT()SI_UNIT(.MILLI.,.METRE.));
#99=SURFACE_SIDE_STYLE('',(#128));
#100=EDGE_LOOP('',(#129,#130,#131,#132));
#101=AXIS2_PLACEMENT_3D('',#133,#134,#135);
#102=SURFACE_SIDE_STYLE('',(#136));
#103=EDGE_LOOP('',(#137,#138,#139,#140));
#104=AXIS2_PLACEMENT_3D('',#141,#142,#143);
#105=SURFACE_SIDE_STYLE('',(#144));
#106=EDGE_LOOP('',(#145,#146,#147,#148));
#107=AXIS2_PLACEMENT_3D('',#149,#150,#151);
#108=SURFACE_SIDE_STYLE('',(#152));
#109=EDGE_LOOP('',(#153,#154,#155,#156));
#110=AXIS2_PLACEMENT_3D('',#157,#158,#159);
#111=SURFACE_SIDE_STYLE('',(#160));
#112=EDGE_LOOP('',(#161,#162,#163,#164));
#113=AXIS2_PLACEMENT_3D('',#165,#166,#167);
#114=SURFACE_SIDE_STYLE('',(#168));
#115=EDGE_LOOP('',(#169,#170,#171,#172));
#116=AXIS2_PLACEMENT_3D('',#173,#174,#175);
#117=SURFACE_SIDE_STYLE('',(#176));
#118=EDGE_LOOP('',(#177,#178));
#119=EDGE_LOOP('',(#179,#180));
#120=EDGE_LOOP('',(#181,#182));
#121=AXIS2_PLACEMENT_3D('',#183,#184,#185);
#122=SURFACE_SIDE_STYLE('',(#186));
#123=EDGE_LOOP('',(#187,#188));
#124=EDGE_LOOP('',(#189,#190));
#125=EDGE_LOOP('',(#191,#192));
#126=AXIS2_PLACEMENT_3D('',#193,#194,#195);
#128=SURFACE_STYLE_FILL_AREA(#196);
#129=ORIENTED_EDGE('',*,*,#197,.F.);
#130=ORIENTED_EDGE('',*,*,#198,.F.);
#131=ORIENTED_EDGE('',*,*,#199,.F.);
#132=ORIENTED_EDGE('',*,*,#200,.F.);
#133=CARTESIAN_POINT('',(0.75,0.0,0.0));
#134=DIRECTION('',(1.0,0.0,0.0));
#135=DIRECTION('',(0.0,0.0,-1.0));
#136=SURFACE_STYLE_FILL_AREA(#201);
#137=ORIENTED_EDGE('',*,*,#202,.F.);
#138=ORIENTED_EDGE('',*,*,#203,.F.);
#139=ORIENTED_EDGE('',*,*,#204,.F.);
#140=ORIENTED_EDGE('',*,*,#205,.F.);
#141=CARTESIAN_POINT('',(0.75,0.0,0.0));
#142=DIRECTION('',(1.0,0.0,0.0));
#143=DIRECTION('',(0.0,0.0,-1.0));
#144=SURFACE_STYLE_FILL_AREA(#206);
#145=ORIENTED_EDGE('',*,*,#207,.F.);
#146=ORIENTED_EDGE('',*,*,#208,.F.);
#147=ORIENTED_EDGE('',*,*,#209,.F.);
#148=ORIENTED_EDGE('',*,*,#210,.F.);
#149=CARTESIAN_POINT('',(0.75,17.5,0.0));
#150=DIRECTION('',(1.0,0.0,0.0));
#151=DIRECTION('',(0.0,0.0,-1.0));
#152=SURFACE_STYLE_FILL_AREA(#211);
#153=ORIENTED_EDGE('',*,*,#207,.T.);
#154=ORIENTED_EDGE('',*,*,#212,.F.);
#155=ORIENTED_EDGE('',*,*,#209,.T.);
#156=ORIENTED_EDGE('',*,*,#213,.F.);
#157=CARTESIAN_POINT('',(0.75,17.5,0.0));
#158=DIRECTION('',(1.0,0.0,0.0));
#159=DIRECTION('',(0.0,0.0,-1.0));
#160=SURFACE_STYLE_FILL_AREA(#214);
#161=ORIENTED_EDGE('',*,*,#202,.T.);
#162=ORIENTED_EDGE('',*,*,#215,.F.);
#163=ORIENTED_EDGE('',*,*,#204,.T.);
#164=ORIENTED_EDGE('',*,*,#216,.F.);
#165=CARTESIAN_POINT('',(0.75,0.0,0.0));
#166=DIRECTION('',(1.0,0.0,0.0));
#167=DIRECTION('',(0.0,0.0,-1.0));
#168=SURFACE_STYLE_FILL_AREA(#217);
#169=ORIENTED_EDGE('',*,*,#197,.T.);
#170=ORIENTED_EDGE('',*,*,#218,.F.);
#171=ORIENTED_EDGE('',*,*,#199,.T.);
#172=ORIENTED_EDGE('',*,*,#219,.F.);
#173=CARTESIAN_POINT('',(0.75,0.0,0.0));
#174=DIRECTION('',(1.0,0.0,0.0));
#175=DIRECTION('',(0.0,0.0,-1.0));
#176=SURFACE_STYLE_FILL_AREA(#220);
#177=ORIENTED_EDGE('',*,*,#212,.T.);
#178=ORIENTED_EDGE('',*,*,#210,.T.);
#179=ORIENTED_EDGE('',*,*,#215,.T.);
#180=ORIENTED_EDGE('',*,*,#205,.T.);
#181=ORIENTED_EDGE('',*,*,#219,.T.);
#182=ORIENTED_EDGE('',*,*,#198,.T.);
#183=CARTESIAN_POINT('',(0.0,0.0,0.0));
#184=DIRECTION('',(-1.0,0.0,0.0));
#185=DIRECTION('',(0.0,0.0,1.0));
#186=SURFACE_STYLE_FILL_AREA(#221);
#187=ORIENTED_EDGE('',*,*,#208,.T.);
#188=ORIENTED_EDGE('',*,*,#213,.T.);
#189=ORIENTED_EDGE('',*,*,#203,.T.);
#190=ORIENTED_EDGE('',*,*,#216,.T.);
#191=ORIENTED_EDGE('',*,*,#200,.T.);
#192=ORIENTED_EDGE('',*,*,#218,.T.);
#193=CARTESIAN_POINT('',(1.5,0.0,0.0));
#194=DIRECTION('',(1.0,0.0,0.0));
#195=DIRECTION('',(0.0,0.0,-1.0));
#196=FILL_AREA_STYLE('',(#222));
#197=EDGE_CURVE('',#223,#224,#225,.T.);
#198=EDGE_CURVE('',#226,#223,#227,.T.);
#199=EDGE_CURVE('',#228,#226,#229,.T.);
#200=EDGE_CURVE('',#224,#228,#230,.T.);
#201=FILL_AREA_STYLE('',(#231));
#202=EDGE_CURVE('',#232,#233,#234,.T.);
#203=EDGE_CURVE('',#235,#232,#236,.T.);
#204=EDGE_CURVE('',#237,#235,#238,.T.);
#205=EDGE_CURVE('',#233,#237,#239,.T.);
#206=FILL_AREA_STYLE('',(#240));
#207=EDGE_CURVE('',#241,#242,#243,.T.);
#208=EDGE_CURVE('',#244,#241,#245,.T.);
#209=EDGE_CURVE('',#246,#244,#247,.T.);
#210=EDGE_CURVE('',#242,#246,#248,.T.);
#211=FILL_AREA_STYLE('',(#249));
#212=EDGE_CURVE('',#246,#242,#250,.T.);
#213=EDGE_CURVE('',#241,#244,#251,.T.);
#214=FILL_AREA_STYLE('',(#252));
#215=EDGE_CURVE('',#237,#233,#253,.T.);
#216=EDGE_CURVE('',#232,#235,#254,.T.);
#217=FILL_AREA_STYLE('',(#255));
#218=EDGE_CURVE('',#228,#224,#256,.T.);
#219=EDGE_CURVE('',#223,#226,#257,.T.);
#220=FILL_AREA_STYLE('',(#258));
#221=FILL_AREA_STYLE('',(#259));
#222=FILL_AREA_STYLE_COLOUR('',#260);
#223=VERTEX_POINT('',#261);
#224=VERTEX_POINT('',#262);
#225=LINE('',#263,#264);
#226=VERTEX_POINT('',#265);
#227=CIRCLE('',#266,22.0);
#228=VERTEX_POINT('',#267);
#229=LINE('',#268,#269);
#230=CIRCLE('',#270,22.0);
#231=FILL_AREA_STYLE_COLOUR('',#271);
#232=VERTEX_POINT('',#272);
#233=VERTEX_POINT('',#273);
#234=LINE('',#274,#275);
#235=VERTEX_POINT('',#276);
#236=CIRCLE('',#277,13.0);
#237=VERTEX_POINT('',#278);
#238=LINE('',#279,#280);
#239=CIRCLE('',#281,13.0);
#240=FILL_AREA_STYLE_COLOUR('',#282);
#241=VERTEX_POINT('',#283);
#242=VERTEX_POINT('',#284);
#243=LINE('',#285,#286);
#244=VERTEX_POINT('',#287);
#245=CIRCLE('',#288,1.625);
#246=VERTEX_POINT('',#289);
#247=LINE('',#290,#291);
#248=CIRCLE('',#292,1.625);
#249=FILL_AREA_STYLE_COLOUR('',#293);
#250=CIRCLE('',#294,1.625);
#251=CIRCLE('',#295,1.625);
#252=FILL_AREA_STYLE_COLOUR('',#296);
#253=CIRCLE('',#297,13.0);
#254=CIRCLE('',#298,13.0);
#255=FILL_AREA_STYLE_COLOUR('',#299);
#256=CIRCLE('',#300,22.0);
#257=CIRCLE('',#301,22.0);
#258=FILL_AREA_STYLE_COLOUR('',#302);
#259=FILL_AREA_STYLE_COLOUR('',#303);
#260=COLOUR_RGB('',0.686274528503418,0.686274528503418,0.686274528503418);
#261=CARTESIAN_POINT('',(0.0,0.0,-22.0));
#262=CARTESIAN_POINT('',(1.5,0.0,-22.0));
#263=CARTESIAN_POINT('',(0.75,-2.69413397840923E-15,-22.0));
#264=VECTOR('',#304,1.0);
#265=CARTESIAN_POINT('',(0.0,2.69413397840923E-15,22.0));
#266=AXIS2_PLACEMENT_3D('',#305,#306,#307);
#267=CARTESIAN_POINT('',(1.5,2.69413397840923E-15,22.0));
#268=CARTESIAN_POINT('',(0.75,2.69413397840923E-15,22.0));
#269=VECTOR('',#308,1.0);
#270=AXIS2_PLACEMENT_3D('',#309,#310,#311);
#271=COLOUR_RGB('',0.686274528503418,0.686274528503418,0.686274528503418);
#272=CARTESIAN_POINT('',(1.5,-1.59198825996909E-15,-13.0));
#273=CARTESIAN_POINT('',(0.0,-1.59198825996909E-15,-13.0));
#274=CARTESIAN_POINT('',(0.75,-1.59198825996909E-15,-13.0));
#275=VECTOR('',#312,1.0);
#276=CARTESIAN_POINT('',(1.5,1.59198825996909E-15,13.0));
#277=AXIS2_PLACEMENT_3D('',#313,#314,#315);
#278=CARTESIAN_POINT('',(0.0,-1.59198825996909E-15,13.0));
#279=CARTESIAN_POINT('',(0.75,1.59198825996909E-15,13.0));
#280=VECTOR('',#316,1.0);
#281=AXIS2_PLACEMENT_3D('',#317,#318,#319);
#282=COLOUR_RGB('',0.686274528503418,0.686274528503418,0.686274528503418);
#283=CARTESIAN_POINT('',(1.5,17.5,-1.625));
#284=CARTESIAN_POINT('',(0.0,17.5,-1.625));
#285=CARTESIAN_POINT('',(0.75,17.5,-1.625));
#286=VECTOR('',#320,1.0);
#287=CARTESIAN_POINT('',(1.5,17.5,1.625));
#288=AXIS2_PLACEMENT_3D('',#321,#322,#323);
#289=CARTESIAN_POINT('',(0.0,17.5,1.625));
#290=CARTESIAN_POINT('',(0.75,17.5,1.625));
#291=VECTOR('',#324,1.0);
#292=AXIS2_PLACEMENT_3D('',#325,#326,#327);
#293=COLOUR_RGB('',0.686274528503418,0.686274528503418,0.686274528503418);
#294=AXIS2_PLACEMENT_3D('',#328,#329,#330);
#295=AXIS2_PLACEMENT_3D('',#331,#332,#333);
#296=COLOUR_RGB('',0.686274528503418,0.686274528503418,0.686274528503418);
#297=AXIS2_PLACEMENT_3D('',#334,#335,#336);
#298=AXIS2_PLACEMENT_3D('',#337,#338,#339);
#299=COLOUR_RGB('',0.686274528503418,0.686274528503418,0.686274528503418);
#300=AXIS2_PLACEMENT_3D('',#340,#341,#342);
#301=AXIS2_PLACEMENT_3D('',#343,#344,#345);
#302=COLOUR_RGB('',0.686274528503418,0.686274528503418,0.686274528503418);
#303=COLOUR_RGB('',0.686274528503418,0.686274528503418,0.686274528503418);
#304=DIRECTION('',(1.0,0.0,0.0));
#305=CARTESIAN_POINT('',(0.0,0.0,0.0));
#306=DIRECTION('',(-1.0,0.0,0.0));
#307=DIRECTION('',(0.0,0.0,-1.0));
#308=DIRECTION('',(-1.0,-0.0,-0.0));
#309=CARTESIAN_POINT('',(1.5,0.0,0.0));
#310=DIRECTION('',(1.0,0.0,0.0));
#311=DIRECTION('',(0.0,0.0,-1.0));
#312=DIRECTION('',(-1.0,0.0,0.0));
#313=CARTESIAN_POINT('',(1.5,0.0,0.0));
#314=DIRECTION('',(-1.0,-0.0,-0.0));
#315=DIRECTION('',(0.0,0.0,-1.0));
#316=DIRECTION('',(1.0,0.0,0.0));
#317=CARTESIAN_POINT('',(0.0,0.0,0.0));
#318=DIRECTION('',(1.0,0.0,0.0));
#319=DIRECTION('',(0.0,0.0,-1.0));
#320=DIRECTION('',(-1.0,-0.0,0.0));
#321=CARTESIAN_POINT('',(1.5,17.5,0.0));
#322=DIRECTION('',(-1.0,-0.0,-0.0));
#323=DIRECTION('',(0.0,0.0,-1.0));
#324=DIRECTION('',(1.0,0.0,0.0));
#325=CARTESIAN_POINT('',(0.0,17.5,0.0));
#326=DIRECTION('',(1.0,0.0,0.0));
#327=DIRECTION('',(0.0,0.0,-1.0));
#328=CARTESIAN_POINT('',(0.0,17.5,0.0));
#329=DIRECTION('',(1.0,0.0,0.0));
#330=DIRECTION('',(0.0,0.0,-1.0));
#331=CARTESIAN_POINT('',(1.5,17.5,0.0));
#332=DIRECTION('',(-1.0,-0.0,-0.0));
#333=DIRECTION('',(0.0,0.0,-1.0));
#334=CARTESIAN_POINT('',(0.0,0.0,0.0));
#335=DIRECTION('',(1.0,0.0,0.0));
#336=DIRECTION('',(0.0,0.0,-1.0));
#337=CARTESIAN_POINT('',(1.5,0.0,0.0));
#338=DIRECTION('',(-1.0,-0.0,-0.0));
#339=DIRECTION('',(0.0,0.0,-1.0));
#340=CARTESIAN_POINT('',(1.5,0.0,0.0));
#341=DIRECTION('',(1.0,0.0,0.0));
#342=DIRECTION('',(0.0,0.0,-1.0));
#343=CARTESIAN_POINT('',(0.0,0.0,0.0));
#344=DIRECTION('',(-1.0,0.0,0.0));
#345=DIRECTION('',(0.0,0.0,-1.0));
ENDSEC;
END-ISO-10303-21;
