ISO-10303-21;
HEADER;
/* Generated by software containing ST-Developer
 * from STEP Tools, Inc. (www.steptools.com) 
 */
/* OPTION: using custom renumber hook */

FILE_DESCRIPTION(
/* description */ ('STEP AP214'),
/* implementation_level */ '2;1');

FILE_NAME(
/* name */ '7303B',
/* time_stamp */ '2025-09-23T17:32:11+02:00',
/* author */ ('License CC BY-ND 4.0'),
/* organization */ ('CADENAS'),
/* preprocessor_version */ 'ST-DEVELOPER v19.3',
/* originating_system */ 'PARTsolutions',
/* authorisation */ '  ');

FILE_SCHEMA (('AUTOMOTIVE_DESIGN {1 0 10303 214 3 1 1}'));
ENDSEC;

DATA;
#10=PROPERTY_DEFINITION_REPRESENTATION(#14,#12);
#11=PROPERTY_DEFINITION_REPRESENTATION(#15,#13);
#12=REPRESENTATION('',(#16),#459);
#13=REPRESENTATION('',(#17),#459);
#14=PROPERTY_DEFINITION('pmi validation property','',#470);
#15=PROPERTY_DEFINITION('pmi validation property','',#470);
#16=VALUE_REPRESENTATION_ITEM('number of annotations',COUNT_MEASURE(0.));
#17=VALUE_REPRESENTATION_ITEM('number of views',COUNT_MEASURE(0.));
#18=VERTEX_LOOP('',#134);
#19=SPHERICAL_SURFACE('',#308,4.4325);
#20=CONICAL_SURFACE('',#300,20.340625,0.130215522150429);
#21=CONTEXT_DEPENDENT_SHAPE_REPRESENTATION(#37,#472);
#22=CONTEXT_DEPENDENT_SHAPE_REPRESENTATION(#38,#474);
#23=CONTEXT_DEPENDENT_SHAPE_REPRESENTATION(#39,#476);
#24=CONTEXT_DEPENDENT_SHAPE_REPRESENTATION(#40,#477);
#25=CONTEXT_DEPENDENT_SHAPE_REPRESENTATION(#41,#478);
#26=CONTEXT_DEPENDENT_SHAPE_REPRESENTATION(#42,#479);
#27=CONTEXT_DEPENDENT_SHAPE_REPRESENTATION(#43,#480);
#28=CONTEXT_DEPENDENT_SHAPE_REPRESENTATION(#44,#481);
#29=NEXT_ASSEMBLY_USAGE_OCCURRENCE('NAUO1','7303B0 Inner ring',
'7303B0 Inner ring',#482,#483,'');
#30=NEXT_ASSEMBLY_USAGE_OCCURRENCE('NAUO2','7303B0 Outer ring',
'7303B0 Outer ring',#482,#484,'');
#31=NEXT_ASSEMBLY_USAGE_OCCURRENCE('NAUO3','7303B0 Ball','7303B0 Ball',
#482,#485,'');
#32=NEXT_ASSEMBLY_USAGE_OCCURRENCE('NAUO4','7303B0 Ball','7303B0 Ball',
#482,#485,'');
#33=NEXT_ASSEMBLY_USAGE_OCCURRENCE('NAUO5','7303B0 Ball','7303B0 Ball',
#482,#485,'');
#34=NEXT_ASSEMBLY_USAGE_OCCURRENCE('NAUO6','7303B0 Ball','7303B0 Ball',
#482,#485,'');
#35=NEXT_ASSEMBLY_USAGE_OCCURRENCE('NAUO7','7303B0 Ball','7303B0 Ball',
#482,#485,'');
#36=NEXT_ASSEMBLY_USAGE_OCCURRENCE('NAUO8','7303B0 Ball','7303B0 Ball',
#482,#485,'');
#37=(
REPRESENTATION_RELATIONSHIP(' ',' ',#270,#269)
REPRESENTATION_RELATIONSHIP_WITH_TRANSFORMATION(#45)
SHAPE_REPRESENTATION_RELATIONSHIP()
);
#38=(
REPRESENTATION_RELATIONSHIP(' ',' ',#271,#269)
REPRESENTATION_RELATIONSHIP_WITH_TRANSFORMATION(#46)
SHAPE_REPRESENTATION_RELATIONSHIP()
);
#39=(
REPRESENTATION_RELATIONSHIP(' ',' ',#272,#269)
REPRESENTATION_RELATIONSHIP_WITH_TRANSFORMATION(#47)
SHAPE_REPRESENTATION_RELATIONSHIP()
);
#40=(
REPRESENTATION_RELATIONSHIP(' ',' ',#272,#269)
REPRESENTATION_RELATIONSHIP_WITH_TRANSFORMATION(#48)
SHAPE_REPRESENTATION_RELATIONSHIP()
);
#41=(
REPRESENTATION_RELATIONSHIP(' ',' ',#272,#269)
REPRESENTATION_RELATIONSHIP_WITH_TRANSFORMATION(#49)
SHAPE_REPRESENTATION_RELATIONSHIP()
);
#42=(
REPRESENTATION_RELATIONSHIP(' ',' ',#272,#269)
REPRESENTATION_RELATIONSHIP_WITH_TRANSFORMATION(#50)
SHAPE_REPRESENTATION_RELATIONSHIP()
);
#43=(
REPRESENTATION_RELATIONSHIP(' ',' ',#272,#269)
REPRESENTATION_RELATIONSHIP_WITH_TRANSFORMATION(#51)
SHAPE_REPRESENTATION_RELATIONSHIP()
);
#44=(
REPRESENTATION_RELATIONSHIP(' ',' ',#272,#269)
REPRESENTATION_RELATIONSHIP_WITH_TRANSFORMATION(#52)
SHAPE_REPRESENTATION_RELATIONSHIP()
);
#45=ITEM_DEFINED_TRANSFORMATION(' ',' ',#273,#290);
#46=ITEM_DEFINED_TRANSFORMATION(' ',' ',#273,#307);
#47=ITEM_DEFINED_TRANSFORMATION(' ',' ',#273,#309);
#48=ITEM_DEFINED_TRANSFORMATION(' ',' ',#273,#310);
#49=ITEM_DEFINED_TRANSFORMATION(' ',' ',#273,#311);
#50=ITEM_DEFINED_TRANSFORMATION(' ',' ',#273,#312);
#51=ITEM_DEFINED_TRANSFORMATION(' ',' ',#273,#313);
#52=ITEM_DEFINED_TRANSFORMATION(' ',' ',#273,#314);
#53=SHAPE_REPRESENTATION_RELATIONSHIP('','',#270,#56);
#54=SHAPE_REPRESENTATION_RELATIONSHIP('','',#271,#57);
#55=SHAPE_REPRESENTATION_RELATIONSHIP('','',#272,#58);
#56=ADVANCED_BREP_SHAPE_REPRESENTATION('',(#262),#460);
#57=ADVANCED_BREP_SHAPE_REPRESENTATION('',(#263),#461);
#58=ADVANCED_BREP_SHAPE_REPRESENTATION('',(#264),#462);
#59=CYLINDRICAL_SURFACE('',#279,8.5);
#60=CYLINDRICAL_SURFACE('',#285,13.3);
#61=CYLINDRICAL_SURFACE('',#289,13.3);
#62=CYLINDRICAL_SURFACE('',#296,18.7);
#63=CYLINDRICAL_SURFACE('',#306,23.5);
#64=TOROIDAL_SURFACE('',#277,9.1,0.600000000000002);
#65=TOROIDAL_SURFACE('',#281,9.5,0.999999999999999);
#66=TOROIDAL_SURFACE('',#287,16.,4.5);
#67=TOROIDAL_SURFACE('',#291,22.5,1.);
#68=TOROIDAL_SURFACE('',#298,16.,4.50000000000002);
#69=TOROIDAL_SURFACE('',#304,22.9,0.600000000000007);
#70=ORIENTED_EDGE('',*,*,#102,.T.);
#71=ORIENTED_EDGE('',*,*,#103,.F.);
#72=ORIENTED_EDGE('',*,*,#104,.T.);
#73=ORIENTED_EDGE('',*,*,#102,.F.);
#74=ORIENTED_EDGE('',*,*,#105,.T.);
#75=ORIENTED_EDGE('',*,*,#104,.F.);
#76=ORIENTED_EDGE('',*,*,#106,.T.);
#77=ORIENTED_EDGE('',*,*,#105,.F.);
#78=ORIENTED_EDGE('',*,*,#107,.T.);
#79=ORIENTED_EDGE('',*,*,#106,.F.);
#80=ORIENTED_EDGE('',*,*,#108,.T.);
#81=ORIENTED_EDGE('',*,*,#107,.F.);
#82=ORIENTED_EDGE('',*,*,#108,.F.);
#83=ORIENTED_EDGE('',*,*,#109,.T.);
#84=ORIENTED_EDGE('',*,*,#103,.T.);
#85=ORIENTED_EDGE('',*,*,#109,.F.);
#86=ORIENTED_EDGE('',*,*,#110,.T.);
#87=ORIENTED_EDGE('',*,*,#111,.F.);
#88=ORIENTED_EDGE('',*,*,#112,.T.);
#89=ORIENTED_EDGE('',*,*,#110,.F.);
#90=ORIENTED_EDGE('',*,*,#113,.T.);
#91=ORIENTED_EDGE('',*,*,#112,.F.);
#92=ORIENTED_EDGE('',*,*,#113,.F.);
#93=ORIENTED_EDGE('',*,*,#114,.T.);
#94=ORIENTED_EDGE('',*,*,#115,.T.);
#95=ORIENTED_EDGE('',*,*,#114,.F.);
#96=ORIENTED_EDGE('',*,*,#116,.T.);
#97=ORIENTED_EDGE('',*,*,#115,.F.);
#98=ORIENTED_EDGE('',*,*,#117,.T.);
#99=ORIENTED_EDGE('',*,*,#116,.F.);
#100=ORIENTED_EDGE('',*,*,#111,.T.);
#101=ORIENTED_EDGE('',*,*,#117,.F.);
#102=EDGE_CURVE('',#118,#118,#135,.T.);
#103=EDGE_CURVE('',#119,#119,#136,.T.);
#104=EDGE_CURVE('',#120,#120,#137,.T.);
#105=EDGE_CURVE('',#121,#121,#138,.T.);
#106=EDGE_CURVE('',#122,#122,#139,.T.);
#107=EDGE_CURVE('',#123,#123,#140,.T.);
#108=EDGE_CURVE('',#124,#124,#141,.T.);
#109=EDGE_CURVE('',#125,#125,#142,.T.);
#110=EDGE_CURVE('',#126,#126,#143,.T.);
#111=EDGE_CURVE('',#127,#127,#144,.T.);
#112=EDGE_CURVE('',#128,#128,#145,.T.);
#113=EDGE_CURVE('',#129,#129,#146,.T.);
#114=EDGE_CURVE('',#130,#130,#147,.T.);
#115=EDGE_CURVE('',#131,#131,#148,.T.);
#116=EDGE_CURVE('',#132,#132,#149,.T.);
#117=EDGE_CURVE('',#133,#133,#150,.T.);
#118=VERTEX_POINT('',#402);
#119=VERTEX_POINT('',#404);
#120=VERTEX_POINT('',#407);
#121=VERTEX_POINT('',#410);
#122=VERTEX_POINT('',#413);
#123=VERTEX_POINT('',#416);
#124=VERTEX_POINT('',#419);
#125=VERTEX_POINT('',#422);
#126=VERTEX_POINT('',#427);
#127=VERTEX_POINT('',#429);
#128=VERTEX_POINT('',#432);
#129=VERTEX_POINT('',#435);
#130=VERTEX_POINT('',#438);
#131=VERTEX_POINT('',#441);
#132=VERTEX_POINT('',#444);
#133=VERTEX_POINT('',#447);
#134=VERTEX_POINT('',#451);
#135=CIRCLE('',#275,9.1);
#136=CIRCLE('',#276,13.3);
#137=CIRCLE('',#278,8.5);
#138=CIRCLE('',#280,8.5);
#139=CIRCLE('',#282,9.5);
#140=CIRCLE('',#284,13.3);
#141=CIRCLE('',#286,13.3);
#142=CIRCLE('',#288,13.3);
#143=CIRCLE('',#292,22.5);
#144=CIRCLE('',#293,23.5);
#145=CIRCLE('',#295,18.7);
#146=CIRCLE('',#297,18.7);
#147=CIRCLE('',#299,20.340625);
#148=CIRCLE('',#301,21.101875);
#149=CIRCLE('',#303,22.9);
#150=CIRCLE('',#305,23.5);
#151=EDGE_LOOP('',(#70));
#152=EDGE_LOOP('',(#71));
#153=EDGE_LOOP('',(#72));
#154=EDGE_LOOP('',(#73));
#155=EDGE_LOOP('',(#74));
#156=EDGE_LOOP('',(#75));
#157=EDGE_LOOP('',(#76));
#158=EDGE_LOOP('',(#77));
#159=EDGE_LOOP('',(#78));
#160=EDGE_LOOP('',(#79));
#161=EDGE_LOOP('',(#80));
#162=EDGE_LOOP('',(#81));
#163=EDGE_LOOP('',(#82));
#164=EDGE_LOOP('',(#83));
#165=EDGE_LOOP('',(#84));
#166=EDGE_LOOP('',(#85));
#167=EDGE_LOOP('',(#86));
#168=EDGE_LOOP('',(#87));
#169=EDGE_LOOP('',(#88));
#170=EDGE_LOOP('',(#89));
#171=EDGE_LOOP('',(#90));
#172=EDGE_LOOP('',(#91));
#173=EDGE_LOOP('',(#92));
#174=EDGE_LOOP('',(#93));
#175=EDGE_LOOP('',(#94));
#176=EDGE_LOOP('',(#95));
#177=EDGE_LOOP('',(#96));
#178=EDGE_LOOP('',(#97));
#179=EDGE_LOOP('',(#98));
#180=EDGE_LOOP('',(#99));
#181=EDGE_LOOP('',(#100));
#182=EDGE_LOOP('',(#101));
#183=FACE_BOUND('',#151,.T.);
#184=FACE_BOUND('',#152,.T.);
#185=FACE_BOUND('',#153,.T.);
#186=FACE_BOUND('',#154,.T.);
#187=FACE_BOUND('',#155,.T.);
#188=FACE_BOUND('',#156,.T.);
#189=FACE_BOUND('',#157,.T.);
#190=FACE_BOUND('',#158,.T.);
#191=FACE_BOUND('',#159,.T.);
#192=FACE_BOUND('',#160,.T.);
#193=FACE_BOUND('',#161,.T.);
#194=FACE_BOUND('',#162,.T.);
#195=FACE_BOUND('',#163,.T.);
#196=FACE_BOUND('',#164,.T.);
#197=FACE_BOUND('',#165,.T.);
#198=FACE_BOUND('',#166,.T.);
#199=FACE_BOUND('',#167,.T.);
#200=FACE_BOUND('',#168,.T.);
#201=FACE_BOUND('',#169,.T.);
#202=FACE_BOUND('',#170,.T.);
#203=FACE_BOUND('',#171,.T.);
#204=FACE_BOUND('',#172,.T.);
#205=FACE_BOUND('',#173,.T.);
#206=FACE_BOUND('',#174,.T.);
#207=FACE_BOUND('',#175,.T.);
#208=FACE_BOUND('',#176,.T.);
#209=FACE_BOUND('',#177,.T.);
#210=FACE_BOUND('',#178,.T.);
#211=FACE_BOUND('',#179,.T.);
#212=FACE_BOUND('',#180,.T.);
#213=FACE_BOUND('',#181,.T.);
#214=FACE_BOUND('',#182,.T.);
#215=FACE_BOUND('',#18,.T.);
#216=PLANE('',#274);
#217=PLANE('',#283);
#218=PLANE('',#294);
#219=PLANE('',#302);
#220=ADVANCED_FACE('',(#183,#184),#216,.T.);
#221=ADVANCED_FACE('',(#185,#186),#64,.T.);
#222=ADVANCED_FACE('',(#187,#188),#59,.F.);
#223=ADVANCED_FACE('',(#189,#190),#65,.T.);
#224=ADVANCED_FACE('',(#191,#192),#217,.T.);
#225=ADVANCED_FACE('',(#193,#194),#60,.T.);
#226=ADVANCED_FACE('',(#195,#196),#66,.F.);
#227=ADVANCED_FACE('',(#197,#198),#61,.T.);
#228=ADVANCED_FACE('',(#199,#200),#67,.T.);
#229=ADVANCED_FACE('',(#201,#202),#218,.T.);
#230=ADVANCED_FACE('',(#203,#204),#62,.F.);
#231=ADVANCED_FACE('',(#205,#206),#68,.F.);
#232=ADVANCED_FACE('',(#207,#208),#20,.F.);
#233=ADVANCED_FACE('',(#209,#210),#219,.T.);
#234=ADVANCED_FACE('',(#211,#212),#69,.T.);
#235=ADVANCED_FACE('',(#213,#214),#63,.T.);
#236=ADVANCED_FACE('',(#215),#19,.T.);
#237=CLOSED_SHELL('',(#220,#221,#222,#223,#224,#225,#226,#227));
#238=CLOSED_SHELL('',(#228,#229,#230,#231,#232,#233,#234,#235));
#239=CLOSED_SHELL('',(#236));
#240=STYLED_ITEM('',(#243),#262);
#241=STYLED_ITEM('',(#244),#263);
#242=STYLED_ITEM('',(#245),#264);
#243=PRESENTATION_STYLE_ASSIGNMENT((#246));
#244=PRESENTATION_STYLE_ASSIGNMENT((#247));
#245=PRESENTATION_STYLE_ASSIGNMENT((#248));
#246=SURFACE_STYLE_USAGE(.BOTH.,#249);
#247=SURFACE_STYLE_USAGE(.BOTH.,#250);
#248=SURFACE_STYLE_USAGE(.BOTH.,#251);
#249=SURFACE_SIDE_STYLE('',(#252));
#250=SURFACE_SIDE_STYLE('',(#253));
#251=SURFACE_SIDE_STYLE('',(#254));
#252=SURFACE_STYLE_FILL_AREA(#255);
#253=SURFACE_STYLE_FILL_AREA(#256);
#254=SURFACE_STYLE_FILL_AREA(#257);
#255=FILL_AREA_STYLE('',(#258));
#256=FILL_AREA_STYLE('',(#259));
#257=FILL_AREA_STYLE('',(#260));
#258=FILL_AREA_STYLE_COLOUR('',#261);
#259=FILL_AREA_STYLE_COLOUR('',#261);
#260=FILL_AREA_STYLE_COLOUR('',#261);
#261=COLOUR_RGB('',0.689999997615814,0.689999997615814,0.689999997615814);
#262=MANIFOLD_SOLID_BREP('7303B0 Inner ring',#237);
#263=MANIFOLD_SOLID_BREP('7303B0 Outer ring',#238);
#264=MANIFOLD_SOLID_BREP('7303B0 Ball',#239);
#265=SHAPE_DEFINITION_REPRESENTATION(#470,#269);
#266=SHAPE_DEFINITION_REPRESENTATION(#471,#270);
#267=SHAPE_DEFINITION_REPRESENTATION(#473,#271);
#268=SHAPE_DEFINITION_REPRESENTATION(#475,#272);
#269=SHAPE_REPRESENTATION('7303B',(#273,#290,#307,#309,#310,#311,#312,#313,
#314),#459);
#270=SHAPE_REPRESENTATION('7303B0 Inner ring',(#273),#460);
#271=SHAPE_REPRESENTATION('7303B0 Outer ring',(#273),#461);
#272=SHAPE_REPRESENTATION('7303B0 Ball',(#273),#462);
#273=AXIS2_PLACEMENT_3D('',#399,#315,#316);
#274=AXIS2_PLACEMENT_3D('',#400,#317,#318);
#275=AXIS2_PLACEMENT_3D('',#401,#319,#320);
#276=AXIS2_PLACEMENT_3D('',#403,#321,#322);
#277=AXIS2_PLACEMENT_3D('',#405,#323,#324);
#278=AXIS2_PLACEMENT_3D('',#406,#325,#326);
#279=AXIS2_PLACEMENT_3D('',#408,#327,#328);
#280=AXIS2_PLACEMENT_3D('',#409,#329,#330);
#281=AXIS2_PLACEMENT_3D('',#411,#331,#332);
#282=AXIS2_PLACEMENT_3D('',#412,#333,#334);
#283=AXIS2_PLACEMENT_3D('',#414,#335,#336);
#284=AXIS2_PLACEMENT_3D('',#415,#337,#338);
#285=AXIS2_PLACEMENT_3D('',#417,#339,#340);
#286=AXIS2_PLACEMENT_3D('',#418,#341,#342);
#287=AXIS2_PLACEMENT_3D('',#420,#343,#344);
#288=AXIS2_PLACEMENT_3D('',#421,#345,#346);
#289=AXIS2_PLACEMENT_3D('',#423,#347,#348);
#290=AXIS2_PLACEMENT_3D('',#424,#349,#350);
#291=AXIS2_PLACEMENT_3D('',#425,#351,#352);
#292=AXIS2_PLACEMENT_3D('',#426,#353,#354);
#293=AXIS2_PLACEMENT_3D('',#428,#355,#356);
#294=AXIS2_PLACEMENT_3D('',#430,#357,#358);
#295=AXIS2_PLACEMENT_3D('',#431,#359,#360);
#296=AXIS2_PLACEMENT_3D('',#433,#361,#362);
#297=AXIS2_PLACEMENT_3D('',#434,#363,#364);
#298=AXIS2_PLACEMENT_3D('',#436,#365,#366);
#299=AXIS2_PLACEMENT_3D('',#437,#367,#368);
#300=AXIS2_PLACEMENT_3D('',#439,#369,#370);
#301=AXIS2_PLACEMENT_3D('',#440,#371,#372);
#302=AXIS2_PLACEMENT_3D('',#442,#373,#374);
#303=AXIS2_PLACEMENT_3D('',#443,#375,#376);
#304=AXIS2_PLACEMENT_3D('',#445,#377,#378);
#305=AXIS2_PLACEMENT_3D('',#446,#379,#380);
#306=AXIS2_PLACEMENT_3D('',#448,#381,#382);
#307=AXIS2_PLACEMENT_3D('',#449,#383,#384);
#308=AXIS2_PLACEMENT_3D('',#450,#385,#386);
#309=AXIS2_PLACEMENT_3D('',#452,#387,#388);
#310=AXIS2_PLACEMENT_3D('',#453,#389,#390);
#311=AXIS2_PLACEMENT_3D('',#454,#391,#392);
#312=AXIS2_PLACEMENT_3D('',#455,#393,#394);
#313=AXIS2_PLACEMENT_3D('',#456,#395,#396);
#314=AXIS2_PLACEMENT_3D('',#457,#397,#398);
#315=DIRECTION('',(0.,0.,1.));
#316=DIRECTION('',(1.,0.,0.));
#317=DIRECTION('',(-1.,0.,0.));
#318=DIRECTION('',(0.,0.,1.));
#319=DIRECTION('',(1.,0.,0.));
#320=DIRECTION('',(0.,0.,-1.));
#321=DIRECTION('',(1.,0.,0.));
#322=DIRECTION('',(0.,0.,-1.));
#323=DIRECTION('',(1.,0.,0.));
#324=DIRECTION('',(0.,0.,-1.));
#325=DIRECTION('',(1.,0.,0.));
#326=DIRECTION('',(0.,0.,-1.));
#327=DIRECTION('',(1.,0.,0.));
#328=DIRECTION('',(0.,0.,-1.));
#329=DIRECTION('',(1.,0.,0.));
#330=DIRECTION('',(0.,0.,-1.));
#331=DIRECTION('',(1.,0.,0.));
#332=DIRECTION('',(0.,0.,-1.));
#333=DIRECTION('',(1.,0.,0.));
#334=DIRECTION('',(0.,0.,-1.));
#335=DIRECTION('',(1.,0.,0.));
#336=DIRECTION('',(0.,0.,-1.));
#337=DIRECTION('',(1.,0.,0.));
#338=DIRECTION('',(0.,0.,-1.));
#339=DIRECTION('',(1.,0.,0.));
#340=DIRECTION('',(0.,0.,-1.));
#341=DIRECTION('',(1.,0.,0.));
#342=DIRECTION('',(0.,0.,-1.));
#343=DIRECTION('',(1.,0.,0.));
#344=DIRECTION('',(0.,0.,-1.));
#345=DIRECTION('',(1.,0.,0.));
#346=DIRECTION('',(0.,0.,-1.));
#347=DIRECTION('',(1.,0.,0.));
#348=DIRECTION('',(0.,0.,-1.));
#349=DIRECTION('',(0.,0.,1.));
#350=DIRECTION('',(1.,0.,0.));
#351=DIRECTION('',(1.,0.,0.));
#352=DIRECTION('',(0.,0.,-1.));
#353=DIRECTION('',(1.,0.,0.));
#354=DIRECTION('',(0.,0.,-1.));
#355=DIRECTION('',(1.,0.,0.));
#356=DIRECTION('',(0.,0.,-1.));
#357=DIRECTION('',(-1.,0.,0.));
#358=DIRECTION('',(0.,0.,1.));
#359=DIRECTION('',(1.,0.,0.));
#360=DIRECTION('',(0.,0.,-1.));
#361=DIRECTION('',(1.,0.,0.));
#362=DIRECTION('',(0.,0.,-1.));
#363=DIRECTION('',(1.,0.,0.));
#364=DIRECTION('',(0.,0.,-1.));
#365=DIRECTION('',(1.,0.,0.));
#366=DIRECTION('',(0.,0.,-1.));
#367=DIRECTION('',(1.,0.,0.));
#368=DIRECTION('',(0.,0.,-1.));
#369=DIRECTION('',(1.,0.,0.));
#370=DIRECTION('',(0.,0.,-1.));
#371=DIRECTION('',(1.,0.,0.));
#372=DIRECTION('',(0.,0.,-1.));
#373=DIRECTION('',(1.,0.,0.));
#374=DIRECTION('',(0.,0.,-1.));
#375=DIRECTION('',(1.,0.,0.));
#376=DIRECTION('',(0.,0.,-1.));
#377=DIRECTION('',(1.,0.,0.));
#378=DIRECTION('',(0.,0.,-1.));
#379=DIRECTION('',(1.,0.,0.));
#380=DIRECTION('',(0.,0.,-1.));
#381=DIRECTION('',(1.,0.,0.));
#382=DIRECTION('',(0.,0.,-1.));
#383=DIRECTION('',(0.,0.,1.));
#384=DIRECTION('',(1.,0.,0.));
#385=DIRECTION('',(1.,0.,0.));
#386=DIRECTION('',(0.,1.,0.));
#387=DIRECTION('',(0.,0.,1.));
#388=DIRECTION('',(-1.,0.,0.));
#389=DIRECTION('',(0.,0.,1.));
#390=DIRECTION('',(-1.,0.,0.));
#391=DIRECTION('',(0.,0.,1.));
#392=DIRECTION('',(-1.,0.,0.));
#393=DIRECTION('',(0.,0.,1.));
#394=DIRECTION('',(-1.,0.,0.));
#395=DIRECTION('',(0.,0.,1.));
#396=DIRECTION('',(-1.,0.,0.));
#397=DIRECTION('',(0.,0.,1.));
#398=DIRECTION('',(-1.,0.,0.));
#399=CARTESIAN_POINT('',(0.,0.,0.));
#400=CARTESIAN_POINT('',(0.,13.3,0.));
#401=CARTESIAN_POINT('',(0.,0.,0.));
#402=CARTESIAN_POINT('',(0.,0.,-9.1));
#403=CARTESIAN_POINT('',(0.,0.,0.));
#404=CARTESIAN_POINT('',(0.,0.,-13.3));
#405=CARTESIAN_POINT('',(0.600000000000002,0.,0.));
#406=CARTESIAN_POINT('',(0.6,0.,0.));
#407=CARTESIAN_POINT('',(0.6,0.,-8.5));
#408=CARTESIAN_POINT('',(14.,0.,0.));
#409=CARTESIAN_POINT('',(13.,0.,0.));
#410=CARTESIAN_POINT('',(13.,0.,-8.5));
#411=CARTESIAN_POINT('',(13.,0.,0.));
#412=CARTESIAN_POINT('',(14.,0.,0.));
#413=CARTESIAN_POINT('',(14.,0.,-9.5));
#414=CARTESIAN_POINT('',(14.,9.5,0.));
#415=CARTESIAN_POINT('',(14.,0.,0.));
#416=CARTESIAN_POINT('',(14.,0.,-13.3));
#417=CARTESIAN_POINT('',(14.,0.,0.));
#418=CARTESIAN_POINT('',(10.6,0.,0.));
#419=CARTESIAN_POINT('',(10.6,0.,-13.3));
#420=CARTESIAN_POINT('',(7.,0.,0.));
#421=CARTESIAN_POINT('',(3.4,0.,0.));
#422=CARTESIAN_POINT('',(3.4,0.,-13.3));
#423=CARTESIAN_POINT('',(14.,0.,0.));
#424=CARTESIAN_POINT('',(0.,0.,0.));
#425=CARTESIAN_POINT('',(0.999999999999999,0.,0.));
#426=CARTESIAN_POINT('',(0.,0.,0.));
#427=CARTESIAN_POINT('',(0.,0.,-22.5));
#428=CARTESIAN_POINT('',(0.999999999999999,0.,0.));
#429=CARTESIAN_POINT('',(0.999999999999999,0.,-23.5));
#430=CARTESIAN_POINT('',(0.,22.5,0.));
#431=CARTESIAN_POINT('',(0.,0.,0.));
#432=CARTESIAN_POINT('',(0.,0.,-18.7));
#433=CARTESIAN_POINT('',(14.,0.,0.));
#434=CARTESIAN_POINT('',(3.4,0.,0.));
#435=CARTESIAN_POINT('',(3.4,0.,-18.7));
#436=CARTESIAN_POINT('',(7.00000000000001,0.,0.));
#437=CARTESIAN_POINT('',(8.18700236283463,0.,0.));
#438=CARTESIAN_POINT('',(8.18700236283463,0.,-20.340625));
#439=CARTESIAN_POINT('',(8.18700236283463,0.,0.));
#440=CARTESIAN_POINT('',(14.,0.,0.));
#441=CARTESIAN_POINT('',(14.,0.,-21.101875));
#442=CARTESIAN_POINT('',(14.,21.101875,0.));
#443=CARTESIAN_POINT('',(14.,0.,0.));
#444=CARTESIAN_POINT('',(14.,0.,-22.9));
#445=CARTESIAN_POINT('',(13.4,0.,0.));
#446=CARTESIAN_POINT('',(13.4,0.,0.));
#447=CARTESIAN_POINT('',(13.4,0.,-23.5));
#448=CARTESIAN_POINT('',(14.,0.,0.));
#449=CARTESIAN_POINT('',(0.,0.,0.));
#450=CARTESIAN_POINT('',(0.,-8.67361737988404E-16,0.));
#451=CARTESIAN_POINT('',(-4.4325,-5.95949391127371E-16,0.));
#452=CARTESIAN_POINT('',(7.,16.,0.));
#453=CARTESIAN_POINT('',(7.,8.,13.856406460551));
#454=CARTESIAN_POINT('',(7.,-8.,13.856406460551));
#455=CARTESIAN_POINT('',(7.,-16.,6.21724893790088E-15));
#456=CARTESIAN_POINT('',(7.,-8.00000000000001,-13.856406460551));
#457=CARTESIAN_POINT('',(7.,7.99999999999999,-13.856406460551));
#458=MECHANICAL_DESIGN_GEOMETRIC_PRESENTATION_REPRESENTATION('',(#240,#241,
#242),#459);
#459=(
GEOMETRIC_REPRESENTATION_CONTEXT(3)
GLOBAL_UNCERTAINTY_ASSIGNED_CONTEXT((#463))
GLOBAL_UNIT_ASSIGNED_CONTEXT((#469,#468,#467))
REPRESENTATION_CONTEXT('7303B','TOP_LEVEL_ASSEMBLY_PART')
);
#460=(
GEOMETRIC_REPRESENTATION_CONTEXT(3)
GLOBAL_UNCERTAINTY_ASSIGNED_CONTEXT((#464))
GLOBAL_UNIT_ASSIGNED_CONTEXT((#469,#468,#467))
REPRESENTATION_CONTEXT('7303B0 Inner ring','COMPONENT_PART')
);
#461=(
GEOMETRIC_REPRESENTATION_CONTEXT(3)
GLOBAL_UNCERTAINTY_ASSIGNED_CONTEXT((#465))
GLOBAL_UNIT_ASSIGNED_CONTEXT((#469,#468,#467))
REPRESENTATION_CONTEXT('7303B0 Outer ring','COMPONENT_PART')
);
#462=(
GEOMETRIC_REPRESENTATION_CONTEXT(3)
GLOBAL_UNCERTAINTY_ASSIGNED_CONTEXT((#466))
GLOBAL_UNIT_ASSIGNED_CONTEXT((#469,#468,#467))
REPRESENTATION_CONTEXT('7303B0 Ball','COMPONENT_PART')
);
#463=UNCERTAINTY_MEASURE_WITH_UNIT(LENGTH_MEASURE(0.005),#469,
'DISTANCE_ACCURACY_VALUE','Maximum Tolerance applied to model');
#464=UNCERTAINTY_MEASURE_WITH_UNIT(LENGTH_MEASURE(0.005),#469,
'DISTANCE_ACCURACY_VALUE','Maximum Tolerance applied to model');
#465=UNCERTAINTY_MEASURE_WITH_UNIT(LENGTH_MEASURE(0.005),#469,
'DISTANCE_ACCURACY_VALUE','Maximum Tolerance applied to model');
#466=UNCERTAINTY_MEASURE_WITH_UNIT(LENGTH_MEASURE(0.005),#469,
'DISTANCE_ACCURACY_VALUE','Maximum Tolerance applied to model');
#467=(
NAMED_UNIT(*)
SI_UNIT($,.STERADIAN.)
SOLID_ANGLE_UNIT()
);
#468=(
NAMED_UNIT(*)
PLANE_ANGLE_UNIT()
SI_UNIT($,.RADIAN.)
);
#469=(
LENGTH_UNIT()
NAMED_UNIT(*)
SI_UNIT(.MILLI.,.METRE.)
);
#470=PRODUCT_DEFINITION_SHAPE('','',#482);
#471=PRODUCT_DEFINITION_SHAPE('','',#483);
#472=PRODUCT_DEFINITION_SHAPE(' ','NAUO PRDDFN',#29);
#473=PRODUCT_DEFINITION_SHAPE('','',#484);
#474=PRODUCT_DEFINITION_SHAPE(' ','NAUO PRDDFN',#30);
#475=PRODUCT_DEFINITION_SHAPE('','',#485);
#476=PRODUCT_DEFINITION_SHAPE(' ','NAUO PRDDFN',#31);
#477=PRODUCT_DEFINITION_SHAPE(' ','NAUO PRDDFN',#32);
#478=PRODUCT_DEFINITION_SHAPE(' ','NAUO PRDDFN',#33);
#479=PRODUCT_DEFINITION_SHAPE(' ','NAUO PRDDFN',#34);
#480=PRODUCT_DEFINITION_SHAPE(' ','NAUO PRDDFN',#35);
#481=PRODUCT_DEFINITION_SHAPE(' ','NAUO PRDDFN',#36);
#482=PRODUCT_DEFINITION('','',#490,#486);
#483=PRODUCT_DEFINITION('','',#491,#487);
#484=PRODUCT_DEFINITION('','',#492,#488);
#485=PRODUCT_DEFINITION('','',#493,#489);
#486=PRODUCT_DEFINITION_CONTEXT('',#511,'design');
#487=PRODUCT_DEFINITION_CONTEXT('',#511,'design');
#488=PRODUCT_DEFINITION_CONTEXT('',#511,'design');
#489=PRODUCT_DEFINITION_CONTEXT('',#511,'design');
#490=PRODUCT_DEFINITION_FORMATION_WITH_SPECIFIED_SOURCE('','',#498,
 .NOT_KNOWN.);
#491=PRODUCT_DEFINITION_FORMATION_WITH_SPECIFIED_SOURCE('','',#499,
 .NOT_KNOWN.);
#492=PRODUCT_DEFINITION_FORMATION_WITH_SPECIFIED_SOURCE('','',#500,
 .NOT_KNOWN.);
#493=PRODUCT_DEFINITION_FORMATION_WITH_SPECIFIED_SOURCE('','',#501,
 .NOT_KNOWN.);
#494=PRODUCT_RELATED_PRODUCT_CATEGORY('','',(#498));
#495=PRODUCT_RELATED_PRODUCT_CATEGORY('','',(#499));
#496=PRODUCT_RELATED_PRODUCT_CATEGORY('','',(#500));
#497=PRODUCT_RELATED_PRODUCT_CATEGORY('','',(#501));
#498=PRODUCT('7303B','7303B','7303B',(#506));
#499=PRODUCT('7303B0 Inner ring','7303B0 Inner ring',
'7303B0 Inner ring',(#507));
#500=PRODUCT('7303B0 Outer ring','7303B0 Outer ring',
'7303B0 Outer ring',(#508));
#501=PRODUCT('7303B0 Ball','7303B0 Ball','7303B0 Ball',(#509));
#502=PRODUCT_CATEGORY('','');
#503=PRODUCT_CATEGORY('','');
#504=PRODUCT_CATEGORY('','');
#505=PRODUCT_CATEGORY('','');
#506=PRODUCT_CONTEXT('',#511,'mechanical');
#507=PRODUCT_CONTEXT('',#511,'mechanical');
#508=PRODUCT_CONTEXT('',#511,'mechanical');
#509=PRODUCT_CONTEXT('',#511,'mechanical');
#510=APPLICATION_PROTOCOL_DEFINITION('international standard',
'automotive_design',2010,#511);
#511=APPLICATION_CONTEXT(
'core data for automotive mechanical design processes');
ENDSEC;
END-ISO-10303-21;
