ISO-10303-21;
HEADER;
/* Generated by software containing ST-Developer
 * from STEP Tools, Inc. (www.steptools.com) 
 */
/* OPTION: using custom renumber hook */

FILE_DESCRIPTION(
/* description */ ('STEP AP214'),
/* implementation_level */ '2;1');

FILE_NAME(
/* name */ '6922',
/* time_stamp */ '2025-10-12T21:17:20+02:00',
/* author */ ('License CC BY-ND 4.0'),
/* organization */ ('CADENAS'),
/* preprocessor_version */ 'ST-DEVELOPER v19.3',
/* originating_system */ 'PARTsolutions',
/* authorisation */ '  ');

FILE_SCHEMA (('AUTOMOTIVE_DESIGN {1 0 10303 214 3 1 1}'));
ENDSEC;

DATA;
#10=PROPERTY_DEFINITION_REPRESENTATION(#14,#12);
#11=PROPERTY_DEFINITION_REPRESENTATION(#15,#13);
#12=REPRESENTATION('',(#16),#563);
#13=REPRESENTATION('',(#17),#563);
#14=PROPERTY_DEFINITION('pmi validation property','',#574);
#15=PROPERTY_DEFINITION('pmi validation property','',#574);
#16=VALUE_REPRESENTATION_ITEM('number of annotations',COUNT_MEASURE(0.));
#17=VALUE_REPRESENTATION_ITEM('number of views',COUNT_MEASURE(0.));
#18=VERTEX_LOOP('',#186);
#19=SPHERICAL_SURFACE('',#360,5.9);
#20=CONTEXT_DEPENDENT_SHAPE_REPRESENTATION(#62,#576);
#21=CONTEXT_DEPENDENT_SHAPE_REPRESENTATION(#63,#578);
#22=CONTEXT_DEPENDENT_SHAPE_REPRESENTATION(#64,#580);
#23=CONTEXT_DEPENDENT_SHAPE_REPRESENTATION(#65,#581);
#24=CONTEXT_DEPENDENT_SHAPE_REPRESENTATION(#66,#582);
#25=CONTEXT_DEPENDENT_SHAPE_REPRESENTATION(#67,#583);
#26=CONTEXT_DEPENDENT_SHAPE_REPRESENTATION(#68,#584);
#27=CONTEXT_DEPENDENT_SHAPE_REPRESENTATION(#69,#585);
#28=CONTEXT_DEPENDENT_SHAPE_REPRESENTATION(#70,#586);
#29=CONTEXT_DEPENDENT_SHAPE_REPRESENTATION(#71,#587);
#30=CONTEXT_DEPENDENT_SHAPE_REPRESENTATION(#72,#588);
#31=CONTEXT_DEPENDENT_SHAPE_REPRESENTATION(#73,#589);
#32=CONTEXT_DEPENDENT_SHAPE_REPRESENTATION(#74,#590);
#33=CONTEXT_DEPENDENT_SHAPE_REPRESENTATION(#75,#591);
#34=CONTEXT_DEPENDENT_SHAPE_REPRESENTATION(#76,#592);
#35=CONTEXT_DEPENDENT_SHAPE_REPRESENTATION(#77,#593);
#36=CONTEXT_DEPENDENT_SHAPE_REPRESENTATION(#78,#594);
#37=CONTEXT_DEPENDENT_SHAPE_REPRESENTATION(#79,#595);
#38=CONTEXT_DEPENDENT_SHAPE_REPRESENTATION(#80,#596);
#39=CONTEXT_DEPENDENT_SHAPE_REPRESENTATION(#81,#597);
#40=CONTEXT_DEPENDENT_SHAPE_REPRESENTATION(#82,#598);
#41=NEXT_ASSEMBLY_USAGE_OCCURRENCE('NAUO1','6922 Inner Ring',
'6922 Inner Ring',#599,#600,'');
#42=NEXT_ASSEMBLY_USAGE_OCCURRENCE('NAUO2','6922 Outer Ring',
'6922 Outer Ring',#599,#601,'');
#43=NEXT_ASSEMBLY_USAGE_OCCURRENCE('NAUO3','6922 Ball','6922 Ball',#599,
#602,'');
#44=NEXT_ASSEMBLY_USAGE_OCCURRENCE('NAUO4','6922 Ball','6922 Ball',#599,
#602,'');
#45=NEXT_ASSEMBLY_USAGE_OCCURRENCE('NAUO5','6922 Ball','6922 Ball',#599,
#602,'');
#46=NEXT_ASSEMBLY_USAGE_OCCURRENCE('NAUO6','6922 Ball','6922 Ball',#599,
#602,'');
#47=NEXT_ASSEMBLY_USAGE_OCCURRENCE('NAUO7','6922 Ball','6922 Ball',#599,
#602,'');
#48=NEXT_ASSEMBLY_USAGE_OCCURRENCE('NAUO8','6922 Ball','6922 Ball',#599,
#602,'');
#49=NEXT_ASSEMBLY_USAGE_OCCURRENCE('NAUO9','6922 Ball','6922 Ball',#599,
#602,'');
#50=NEXT_ASSEMBLY_USAGE_OCCURRENCE('NAUO10','6922 Ball','6922 Ball',#599,
#602,'');
#51=NEXT_ASSEMBLY_USAGE_OCCURRENCE('NAUO11','6922 Ball','6922 Ball',#599,
#602,'');
#52=NEXT_ASSEMBLY_USAGE_OCCURRENCE('NAUO12','6922 Ball','6922 Ball',#599,
#602,'');
#53=NEXT_ASSEMBLY_USAGE_OCCURRENCE('NAUO13','6922 Ball','6922 Ball',#599,
#602,'');
#54=NEXT_ASSEMBLY_USAGE_OCCURRENCE('NAUO14','6922 Ball','6922 Ball',#599,
#602,'');
#55=NEXT_ASSEMBLY_USAGE_OCCURRENCE('NAUO15','6922 Ball','6922 Ball',#599,
#602,'');
#56=NEXT_ASSEMBLY_USAGE_OCCURRENCE('NAUO16','6922 Ball','6922 Ball',#599,
#602,'');
#57=NEXT_ASSEMBLY_USAGE_OCCURRENCE('NAUO17','6922 Ball','6922 Ball',#599,
#602,'');
#58=NEXT_ASSEMBLY_USAGE_OCCURRENCE('NAUO18','6922 Ball','6922 Ball',#599,
#602,'');
#59=NEXT_ASSEMBLY_USAGE_OCCURRENCE('NAUO19','6922 Ball','6922 Ball',#599,
#602,'');
#60=NEXT_ASSEMBLY_USAGE_OCCURRENCE('NAUO20','6922 Ball','6922 Ball',#599,
#602,'');
#61=NEXT_ASSEMBLY_USAGE_OCCURRENCE('NAUO21','6922 Ball','6922 Ball',#599,
#602,'');
#62=(
REPRESENTATION_RELATIONSHIP(' ',' ',#322,#321)
REPRESENTATION_RELATIONSHIP_WITH_TRANSFORMATION(#83)
SHAPE_REPRESENTATION_RELATIONSHIP()
);
#63=(
REPRESENTATION_RELATIONSHIP(' ',' ',#323,#321)
REPRESENTATION_RELATIONSHIP_WITH_TRANSFORMATION(#84)
SHAPE_REPRESENTATION_RELATIONSHIP()
);
#64=(
REPRESENTATION_RELATIONSHIP(' ',' ',#324,#321)
REPRESENTATION_RELATIONSHIP_WITH_TRANSFORMATION(#85)
SHAPE_REPRESENTATION_RELATIONSHIP()
);
#65=(
REPRESENTATION_RELATIONSHIP(' ',' ',#324,#321)
REPRESENTATION_RELATIONSHIP_WITH_TRANSFORMATION(#86)
SHAPE_REPRESENTATION_RELATIONSHIP()
);
#66=(
REPRESENTATION_RELATIONSHIP(' ',' ',#324,#321)
REPRESENTATION_RELATIONSHIP_WITH_TRANSFORMATION(#87)
SHAPE_REPRESENTATION_RELATIONSHIP()
);
#67=(
REPRESENTATION_RELATIONSHIP(' ',' ',#324,#321)
REPRESENTATION_RELATIONSHIP_WITH_TRANSFORMATION(#88)
SHAPE_REPRESENTATION_RELATIONSHIP()
);
#68=(
REPRESENTATION_RELATIONSHIP(' ',' ',#324,#321)
REPRESENTATION_RELATIONSHIP_WITH_TRANSFORMATION(#89)
SHAPE_REPRESENTATION_RELATIONSHIP()
);
#69=(
REPRESENTATION_RELATIONSHIP(' ',' ',#324,#321)
REPRESENTATION_RELATIONSHIP_WITH_TRANSFORMATION(#90)
SHAPE_REPRESENTATION_RELATIONSHIP()
);
#70=(
REPRESENTATION_RELATIONSHIP(' ',' ',#324,#321)
REPRESENTATION_RELATIONSHIP_WITH_TRANSFORMATION(#91)
SHAPE_REPRESENTATION_RELATIONSHIP()
);
#71=(
REPRESENTATION_RELATIONSHIP(' ',' ',#324,#321)
REPRESENTATION_RELATIONSHIP_WITH_TRANSFORMATION(#92)
SHAPE_REPRESENTATION_RELATIONSHIP()
);
#72=(
REPRESENTATION_RELATIONSHIP(' ',' ',#324,#321)
REPRESENTATION_RELATIONSHIP_WITH_TRANSFORMATION(#93)
SHAPE_REPRESENTATION_RELATIONSHIP()
);
#73=(
REPRESENTATION_RELATIONSHIP(' ',' ',#324,#321)
REPRESENTATION_RELATIONSHIP_WITH_TRANSFORMATION(#94)
SHAPE_REPRESENTATION_RELATIONSHIP()
);
#74=(
REPRESENTATION_RELATIONSHIP(' ',' ',#324,#321)
REPRESENTATION_RELATIONSHIP_WITH_TRANSFORMATION(#95)
SHAPE_REPRESENTATION_RELATIONSHIP()
);
#75=(
REPRESENTATION_RELATIONSHIP(' ',' ',#324,#321)
REPRESENTATION_RELATIONSHIP_WITH_TRANSFORMATION(#96)
SHAPE_REPRESENTATION_RELATIONSHIP()
);
#76=(
REPRESENTATION_RELATIONSHIP(' ',' ',#324,#321)
REPRESENTATION_RELATIONSHIP_WITH_TRANSFORMATION(#97)
SHAPE_REPRESENTATION_RELATIONSHIP()
);
#77=(
REPRESENTATION_RELATIONSHIP(' ',' ',#324,#321)
REPRESENTATION_RELATIONSHIP_WITH_TRANSFORMATION(#98)
SHAPE_REPRESENTATION_RELATIONSHIP()
);
#78=(
REPRESENTATION_RELATIONSHIP(' ',' ',#324,#321)
REPRESENTATION_RELATIONSHIP_WITH_TRANSFORMATION(#99)
SHAPE_REPRESENTATION_RELATIONSHIP()
);
#79=(
REPRESENTATION_RELATIONSHIP(' ',' ',#324,#321)
REPRESENTATION_RELATIONSHIP_WITH_TRANSFORMATION(#100)
SHAPE_REPRESENTATION_RELATIONSHIP()
);
#80=(
REPRESENTATION_RELATIONSHIP(' ',' ',#324,#321)
REPRESENTATION_RELATIONSHIP_WITH_TRANSFORMATION(#101)
SHAPE_REPRESENTATION_RELATIONSHIP()
);
#81=(
REPRESENTATION_RELATIONSHIP(' ',' ',#324,#321)
REPRESENTATION_RELATIONSHIP_WITH_TRANSFORMATION(#102)
SHAPE_REPRESENTATION_RELATIONSHIP()
);
#82=(
REPRESENTATION_RELATIONSHIP(' ',' ',#324,#321)
REPRESENTATION_RELATIONSHIP_WITH_TRANSFORMATION(#103)
SHAPE_REPRESENTATION_RELATIONSHIP()
);
#83=ITEM_DEFINED_TRANSFORMATION(' ',' ',#325,#342);
#84=ITEM_DEFINED_TRANSFORMATION(' ',' ',#325,#359);
#85=ITEM_DEFINED_TRANSFORMATION(' ',' ',#325,#361);
#86=ITEM_DEFINED_TRANSFORMATION(' ',' ',#325,#362);
#87=ITEM_DEFINED_TRANSFORMATION(' ',' ',#325,#363);
#88=ITEM_DEFINED_TRANSFORMATION(' ',' ',#325,#364);
#89=ITEM_DEFINED_TRANSFORMATION(' ',' ',#325,#365);
#90=ITEM_DEFINED_TRANSFORMATION(' ',' ',#325,#366);
#91=ITEM_DEFINED_TRANSFORMATION(' ',' ',#325,#367);
#92=ITEM_DEFINED_TRANSFORMATION(' ',' ',#325,#368);
#93=ITEM_DEFINED_TRANSFORMATION(' ',' ',#325,#369);
#94=ITEM_DEFINED_TRANSFORMATION(' ',' ',#325,#370);
#95=ITEM_DEFINED_TRANSFORMATION(' ',' ',#325,#371);
#96=ITEM_DEFINED_TRANSFORMATION(' ',' ',#325,#372);
#97=ITEM_DEFINED_TRANSFORMATION(' ',' ',#325,#373);
#98=ITEM_DEFINED_TRANSFORMATION(' ',' ',#325,#374);
#99=ITEM_DEFINED_TRANSFORMATION(' ',' ',#325,#375);
#100=ITEM_DEFINED_TRANSFORMATION(' ',' ',#325,#376);
#101=ITEM_DEFINED_TRANSFORMATION(' ',' ',#325,#377);
#102=ITEM_DEFINED_TRANSFORMATION(' ',' ',#325,#378);
#103=ITEM_DEFINED_TRANSFORMATION(' ',' ',#325,#379);
#104=SHAPE_REPRESENTATION_RELATIONSHIP('','',#322,#107);
#105=SHAPE_REPRESENTATION_RELATIONSHIP('','',#323,#108);
#106=SHAPE_REPRESENTATION_RELATIONSHIP('','',#324,#109);
#107=ADVANCED_BREP_SHAPE_REPRESENTATION('',(#314),#564);
#108=ADVANCED_BREP_SHAPE_REPRESENTATION('',(#315),#565);
#109=ADVANCED_BREP_SHAPE_REPRESENTATION('',(#316),#566);
#110=CYLINDRICAL_SURFACE('',#331,55.);
#111=CYLINDRICAL_SURFACE('',#337,61.4);
#112=CYLINDRICAL_SURFACE('',#341,61.4);
#113=CYLINDRICAL_SURFACE('',#346,68.6);
#114=CYLINDRICAL_SURFACE('',#350,68.6);
#115=CYLINDRICAL_SURFACE('',#356,75.);
#116=TOROIDAL_SURFACE('',#329,56.1,1.09999999999999);
#117=TOROIDAL_SURFACE('',#333,56.1,1.1);
#118=TOROIDAL_SURFACE('',#339,65.,6.);
#119=TOROIDAL_SURFACE('',#348,65.,5.99999999999998);
#120=TOROIDAL_SURFACE('',#354,73.9,1.1);
#121=TOROIDAL_SURFACE('',#358,73.9,1.1);
#122=ORIENTED_EDGE('',*,*,#154,.T.);
#123=ORIENTED_EDGE('',*,*,#155,.F.);
#124=ORIENTED_EDGE('',*,*,#156,.T.);
#125=ORIENTED_EDGE('',*,*,#154,.F.);
#126=ORIENTED_EDGE('',*,*,#157,.T.);
#127=ORIENTED_EDGE('',*,*,#156,.F.);
#128=ORIENTED_EDGE('',*,*,#158,.T.);
#129=ORIENTED_EDGE('',*,*,#157,.F.);
#130=ORIENTED_EDGE('',*,*,#159,.T.);
#131=ORIENTED_EDGE('',*,*,#158,.F.);
#132=ORIENTED_EDGE('',*,*,#160,.T.);
#133=ORIENTED_EDGE('',*,*,#159,.F.);
#134=ORIENTED_EDGE('',*,*,#160,.F.);
#135=ORIENTED_EDGE('',*,*,#161,.T.);
#136=ORIENTED_EDGE('',*,*,#155,.T.);
#137=ORIENTED_EDGE('',*,*,#161,.F.);
#138=ORIENTED_EDGE('',*,*,#162,.T.);
#139=ORIENTED_EDGE('',*,*,#163,.F.);
#140=ORIENTED_EDGE('',*,*,#164,.T.);
#141=ORIENTED_EDGE('',*,*,#162,.F.);
#142=ORIENTED_EDGE('',*,*,#164,.F.);
#143=ORIENTED_EDGE('',*,*,#165,.T.);
#144=ORIENTED_EDGE('',*,*,#166,.T.);
#145=ORIENTED_EDGE('',*,*,#165,.F.);
#146=ORIENTED_EDGE('',*,*,#167,.T.);
#147=ORIENTED_EDGE('',*,*,#166,.F.);
#148=ORIENTED_EDGE('',*,*,#168,.T.);
#149=ORIENTED_EDGE('',*,*,#167,.F.);
#150=ORIENTED_EDGE('',*,*,#169,.T.);
#151=ORIENTED_EDGE('',*,*,#168,.F.);
#152=ORIENTED_EDGE('',*,*,#163,.T.);
#153=ORIENTED_EDGE('',*,*,#169,.F.);
#154=EDGE_CURVE('',#170,#170,#187,.T.);
#155=EDGE_CURVE('',#171,#171,#188,.T.);
#156=EDGE_CURVE('',#172,#172,#189,.T.);
#157=EDGE_CURVE('',#173,#173,#190,.T.);
#158=EDGE_CURVE('',#174,#174,#191,.T.);
#159=EDGE_CURVE('',#175,#175,#192,.T.);
#160=EDGE_CURVE('',#176,#176,#193,.T.);
#161=EDGE_CURVE('',#177,#177,#194,.T.);
#162=EDGE_CURVE('',#178,#178,#195,.T.);
#163=EDGE_CURVE('',#179,#179,#196,.T.);
#164=EDGE_CURVE('',#180,#180,#197,.T.);
#165=EDGE_CURVE('',#181,#181,#198,.T.);
#166=EDGE_CURVE('',#182,#182,#199,.T.);
#167=EDGE_CURVE('',#183,#183,#200,.T.);
#168=EDGE_CURVE('',#184,#184,#201,.T.);
#169=EDGE_CURVE('',#185,#185,#202,.T.);
#170=VERTEX_POINT('',#493);
#171=VERTEX_POINT('',#495);
#172=VERTEX_POINT('',#498);
#173=VERTEX_POINT('',#501);
#174=VERTEX_POINT('',#504);
#175=VERTEX_POINT('',#507);
#176=VERTEX_POINT('',#510);
#177=VERTEX_POINT('',#513);
#178=VERTEX_POINT('',#518);
#179=VERTEX_POINT('',#520);
#180=VERTEX_POINT('',#523);
#181=VERTEX_POINT('',#526);
#182=VERTEX_POINT('',#529);
#183=VERTEX_POINT('',#532);
#184=VERTEX_POINT('',#535);
#185=VERTEX_POINT('',#538);
#186=VERTEX_POINT('',#542);
#187=CIRCLE('',#327,56.1);
#188=CIRCLE('',#328,61.4);
#189=CIRCLE('',#330,55.);
#190=CIRCLE('',#332,55.);
#191=CIRCLE('',#334,56.1);
#192=CIRCLE('',#336,61.4);
#193=CIRCLE('',#338,61.4);
#194=CIRCLE('',#340,61.4);
#195=CIRCLE('',#344,68.6);
#196=CIRCLE('',#345,73.9);
#197=CIRCLE('',#347,68.6);
#198=CIRCLE('',#349,68.6);
#199=CIRCLE('',#351,68.6);
#200=CIRCLE('',#353,73.9);
#201=CIRCLE('',#355,75.);
#202=CIRCLE('',#357,75.);
#203=EDGE_LOOP('',(#122));
#204=EDGE_LOOP('',(#123));
#205=EDGE_LOOP('',(#124));
#206=EDGE_LOOP('',(#125));
#207=EDGE_LOOP('',(#126));
#208=EDGE_LOOP('',(#127));
#209=EDGE_LOOP('',(#128));
#210=EDGE_LOOP('',(#129));
#211=EDGE_LOOP('',(#130));
#212=EDGE_LOOP('',(#131));
#213=EDGE_LOOP('',(#132));
#214=EDGE_LOOP('',(#133));
#215=EDGE_LOOP('',(#134));
#216=EDGE_LOOP('',(#135));
#217=EDGE_LOOP('',(#136));
#218=EDGE_LOOP('',(#137));
#219=EDGE_LOOP('',(#138));
#220=EDGE_LOOP('',(#139));
#221=EDGE_LOOP('',(#140));
#222=EDGE_LOOP('',(#141));
#223=EDGE_LOOP('',(#142));
#224=EDGE_LOOP('',(#143));
#225=EDGE_LOOP('',(#144));
#226=EDGE_LOOP('',(#145));
#227=EDGE_LOOP('',(#146));
#228=EDGE_LOOP('',(#147));
#229=EDGE_LOOP('',(#148));
#230=EDGE_LOOP('',(#149));
#231=EDGE_LOOP('',(#150));
#232=EDGE_LOOP('',(#151));
#233=EDGE_LOOP('',(#152));
#234=EDGE_LOOP('',(#153));
#235=FACE_BOUND('',#203,.T.);
#236=FACE_BOUND('',#204,.T.);
#237=FACE_BOUND('',#205,.T.);
#238=FACE_BOUND('',#206,.T.);
#239=FACE_BOUND('',#207,.T.);
#240=FACE_BOUND('',#208,.T.);
#241=FACE_BOUND('',#209,.T.);
#242=FACE_BOUND('',#210,.T.);
#243=FACE_BOUND('',#211,.T.);
#244=FACE_BOUND('',#212,.T.);
#245=FACE_BOUND('',#213,.T.);
#246=FACE_BOUND('',#214,.T.);
#247=FACE_BOUND('',#215,.T.);
#248=FACE_BOUND('',#216,.T.);
#249=FACE_BOUND('',#217,.T.);
#250=FACE_BOUND('',#218,.T.);
#251=FACE_BOUND('',#219,.T.);
#252=FACE_BOUND('',#220,.T.);
#253=FACE_BOUND('',#221,.T.);
#254=FACE_BOUND('',#222,.T.);
#255=FACE_BOUND('',#223,.T.);
#256=FACE_BOUND('',#224,.T.);
#257=FACE_BOUND('',#225,.T.);
#258=FACE_BOUND('',#226,.T.);
#259=FACE_BOUND('',#227,.T.);
#260=FACE_BOUND('',#228,.T.);
#261=FACE_BOUND('',#229,.T.);
#262=FACE_BOUND('',#230,.T.);
#263=FACE_BOUND('',#231,.T.);
#264=FACE_BOUND('',#232,.T.);
#265=FACE_BOUND('',#233,.T.);
#266=FACE_BOUND('',#234,.T.);
#267=FACE_BOUND('',#18,.T.);
#268=PLANE('',#326);
#269=PLANE('',#335);
#270=PLANE('',#343);
#271=PLANE('',#352);
#272=ADVANCED_FACE('',(#235,#236),#268,.T.);
#273=ADVANCED_FACE('',(#237,#238),#116,.T.);
#274=ADVANCED_FACE('',(#239,#240),#110,.F.);
#275=ADVANCED_FACE('',(#241,#242),#117,.T.);
#276=ADVANCED_FACE('',(#243,#244),#269,.T.);
#277=ADVANCED_FACE('',(#245,#246),#111,.T.);
#278=ADVANCED_FACE('',(#247,#248),#118,.F.);
#279=ADVANCED_FACE('',(#249,#250),#112,.T.);
#280=ADVANCED_FACE('',(#251,#252),#270,.T.);
#281=ADVANCED_FACE('',(#253,#254),#113,.F.);
#282=ADVANCED_FACE('',(#255,#256),#119,.F.);
#283=ADVANCED_FACE('',(#257,#258),#114,.F.);
#284=ADVANCED_FACE('',(#259,#260),#271,.T.);
#285=ADVANCED_FACE('',(#261,#262),#120,.T.);
#286=ADVANCED_FACE('',(#263,#264),#115,.T.);
#287=ADVANCED_FACE('',(#265,#266),#121,.T.);
#288=ADVANCED_FACE('',(#267),#19,.T.);
#289=CLOSED_SHELL('',(#272,#273,#274,#275,#276,#277,#278,#279));
#290=CLOSED_SHELL('',(#280,#281,#282,#283,#284,#285,#286,#287));
#291=CLOSED_SHELL('',(#288));
#292=STYLED_ITEM('',(#295),#314);
#293=STYLED_ITEM('',(#296),#315);
#294=STYLED_ITEM('',(#297),#316);
#295=PRESENTATION_STYLE_ASSIGNMENT((#298));
#296=PRESENTATION_STYLE_ASSIGNMENT((#299));
#297=PRESENTATION_STYLE_ASSIGNMENT((#300));
#298=SURFACE_STYLE_USAGE(.BOTH.,#301);
#299=SURFACE_STYLE_USAGE(.BOTH.,#302);
#300=SURFACE_STYLE_USAGE(.BOTH.,#303);
#301=SURFACE_SIDE_STYLE('',(#304));
#302=SURFACE_SIDE_STYLE('',(#305));
#303=SURFACE_SIDE_STYLE('',(#306));
#304=SURFACE_STYLE_FILL_AREA(#307);
#305=SURFACE_STYLE_FILL_AREA(#308);
#306=SURFACE_STYLE_FILL_AREA(#309);
#307=FILL_AREA_STYLE('',(#310));
#308=FILL_AREA_STYLE('',(#311));
#309=FILL_AREA_STYLE('',(#312));
#310=FILL_AREA_STYLE_COLOUR('',#313);
#311=FILL_AREA_STYLE_COLOUR('',#313);
#312=FILL_AREA_STYLE_COLOUR('',#313);
#313=COLOUR_RGB('',0.689999997615814,0.689999997615814,0.689999997615814);
#314=MANIFOLD_SOLID_BREP('6922 Inner Ring',#289);
#315=MANIFOLD_SOLID_BREP('6922 Outer Ring',#290);
#316=MANIFOLD_SOLID_BREP('6922 Ball',#291);
#317=SHAPE_DEFINITION_REPRESENTATION(#574,#321);
#318=SHAPE_DEFINITION_REPRESENTATION(#575,#322);
#319=SHAPE_DEFINITION_REPRESENTATION(#577,#323);
#320=SHAPE_DEFINITION_REPRESENTATION(#579,#324);
#321=SHAPE_REPRESENTATION('6922',(#325,#342,#359,#361,#362,#363,#364,#365,
#366,#367,#368,#369,#370,#371,#372,#373,#374,#375,#376,#377,#378,#379),
#563);
#322=SHAPE_REPRESENTATION('6922 Inner Ring',(#325),#564);
#323=SHAPE_REPRESENTATION('6922 Outer Ring',(#325),#565);
#324=SHAPE_REPRESENTATION('6922 Ball',(#325),#566);
#325=AXIS2_PLACEMENT_3D('',#490,#380,#381);
#326=AXIS2_PLACEMENT_3D('',#491,#382,#383);
#327=AXIS2_PLACEMENT_3D('',#492,#384,#385);
#328=AXIS2_PLACEMENT_3D('',#494,#386,#387);
#329=AXIS2_PLACEMENT_3D('',#496,#388,#389);
#330=AXIS2_PLACEMENT_3D('',#497,#390,#391);
#331=AXIS2_PLACEMENT_3D('',#499,#392,#393);
#332=AXIS2_PLACEMENT_3D('',#500,#394,#395);
#333=AXIS2_PLACEMENT_3D('',#502,#396,#397);
#334=AXIS2_PLACEMENT_3D('',#503,#398,#399);
#335=AXIS2_PLACEMENT_3D('',#505,#400,#401);
#336=AXIS2_PLACEMENT_3D('',#506,#402,#403);
#337=AXIS2_PLACEMENT_3D('',#508,#404,#405);
#338=AXIS2_PLACEMENT_3D('',#509,#406,#407);
#339=AXIS2_PLACEMENT_3D('',#511,#408,#409);
#340=AXIS2_PLACEMENT_3D('',#512,#410,#411);
#341=AXIS2_PLACEMENT_3D('',#514,#412,#413);
#342=AXIS2_PLACEMENT_3D('',#515,#414,#415);
#343=AXIS2_PLACEMENT_3D('',#516,#416,#417);
#344=AXIS2_PLACEMENT_3D('',#517,#418,#419);
#345=AXIS2_PLACEMENT_3D('',#519,#420,#421);
#346=AXIS2_PLACEMENT_3D('',#521,#422,#423);
#347=AXIS2_PLACEMENT_3D('',#522,#424,#425);
#348=AXIS2_PLACEMENT_3D('',#524,#426,#427);
#349=AXIS2_PLACEMENT_3D('',#525,#428,#429);
#350=AXIS2_PLACEMENT_3D('',#527,#430,#431);
#351=AXIS2_PLACEMENT_3D('',#528,#432,#433);
#352=AXIS2_PLACEMENT_3D('',#530,#434,#435);
#353=AXIS2_PLACEMENT_3D('',#531,#436,#437);
#354=AXIS2_PLACEMENT_3D('',#533,#438,#439);
#355=AXIS2_PLACEMENT_3D('',#534,#440,#441);
#356=AXIS2_PLACEMENT_3D('',#536,#442,#443);
#357=AXIS2_PLACEMENT_3D('',#537,#444,#445);
#358=AXIS2_PLACEMENT_3D('',#539,#446,#447);
#359=AXIS2_PLACEMENT_3D('',#540,#448,#449);
#360=AXIS2_PLACEMENT_3D('',#541,#450,#451);
#361=AXIS2_PLACEMENT_3D('',#543,#452,#453);
#362=AXIS2_PLACEMENT_3D('',#544,#454,#455);
#363=AXIS2_PLACEMENT_3D('',#545,#456,#457);
#364=AXIS2_PLACEMENT_3D('',#546,#458,#459);
#365=AXIS2_PLACEMENT_3D('',#547,#460,#461);
#366=AXIS2_PLACEMENT_3D('',#548,#462,#463);
#367=AXIS2_PLACEMENT_3D('',#549,#464,#465);
#368=AXIS2_PLACEMENT_3D('',#550,#466,#467);
#369=AXIS2_PLACEMENT_3D('',#551,#468,#469);
#370=AXIS2_PLACEMENT_3D('',#552,#470,#471);
#371=AXIS2_PLACEMENT_3D('',#553,#472,#473);
#372=AXIS2_PLACEMENT_3D('',#554,#474,#475);
#373=AXIS2_PLACEMENT_3D('',#555,#476,#477);
#374=AXIS2_PLACEMENT_3D('',#556,#478,#479);
#375=AXIS2_PLACEMENT_3D('',#557,#480,#481);
#376=AXIS2_PLACEMENT_3D('',#558,#482,#483);
#377=AXIS2_PLACEMENT_3D('',#559,#484,#485);
#378=AXIS2_PLACEMENT_3D('',#560,#486,#487);
#379=AXIS2_PLACEMENT_3D('',#561,#488,#489);
#380=DIRECTION('',(0.,0.,1.));
#381=DIRECTION('',(1.,0.,0.));
#382=DIRECTION('',(-1.,0.,0.));
#383=DIRECTION('',(0.,0.,1.));
#384=DIRECTION('',(1.,0.,0.));
#385=DIRECTION('',(0.,0.,-1.));
#386=DIRECTION('',(1.,0.,0.));
#387=DIRECTION('',(0.,0.,-1.));
#388=DIRECTION('',(1.,0.,0.));
#389=DIRECTION('',(0.,0.,-1.));
#390=DIRECTION('',(1.,0.,0.));
#391=DIRECTION('',(0.,0.,-1.));
#392=DIRECTION('',(1.,0.,0.));
#393=DIRECTION('',(0.,0.,-1.));
#394=DIRECTION('',(1.,0.,0.));
#395=DIRECTION('',(0.,0.,-1.));
#396=DIRECTION('',(1.,0.,0.));
#397=DIRECTION('',(0.,0.,-1.));
#398=DIRECTION('',(1.,0.,0.));
#399=DIRECTION('',(0.,0.,-1.));
#400=DIRECTION('',(1.,0.,0.));
#401=DIRECTION('',(0.,0.,-1.));
#402=DIRECTION('',(1.,0.,0.));
#403=DIRECTION('',(0.,0.,-1.));
#404=DIRECTION('',(1.,0.,0.));
#405=DIRECTION('',(0.,0.,-1.));
#406=DIRECTION('',(1.,0.,0.));
#407=DIRECTION('',(0.,0.,-1.));
#408=DIRECTION('',(1.,0.,0.));
#409=DIRECTION('',(0.,0.,-1.));
#410=DIRECTION('',(1.,0.,0.));
#411=DIRECTION('',(0.,0.,-1.));
#412=DIRECTION('',(1.,0.,0.));
#413=DIRECTION('',(0.,0.,-1.));
#414=DIRECTION('',(0.,0.,1.));
#415=DIRECTION('',(1.,0.,0.));
#416=DIRECTION('',(-1.,0.,0.));
#417=DIRECTION('',(0.,0.,1.));
#418=DIRECTION('',(1.,0.,0.));
#419=DIRECTION('',(0.,0.,-1.));
#420=DIRECTION('',(1.,0.,0.));
#421=DIRECTION('',(0.,0.,-1.));
#422=DIRECTION('',(1.,0.,0.));
#423=DIRECTION('',(0.,0.,-1.));
#424=DIRECTION('',(1.,0.,0.));
#425=DIRECTION('',(0.,0.,-1.));
#426=DIRECTION('',(1.,0.,0.));
#427=DIRECTION('',(0.,0.,-1.));
#428=DIRECTION('',(1.,0.,0.));
#429=DIRECTION('',(0.,0.,-1.));
#430=DIRECTION('',(1.,0.,0.));
#431=DIRECTION('',(0.,0.,-1.));
#432=DIRECTION('',(1.,0.,0.));
#433=DIRECTION('',(0.,0.,-1.));
#434=DIRECTION('',(1.,0.,0.));
#435=DIRECTION('',(0.,0.,-1.));
#436=DIRECTION('',(1.,0.,0.));
#437=DIRECTION('',(0.,0.,-1.));
#438=DIRECTION('',(1.,0.,0.));
#439=DIRECTION('',(0.,0.,-1.));
#440=DIRECTION('',(1.,0.,0.));
#441=DIRECTION('',(0.,0.,-1.));
#442=DIRECTION('',(1.,0.,0.));
#443=DIRECTION('',(0.,0.,-1.));
#444=DIRECTION('',(1.,0.,0.));
#445=DIRECTION('',(0.,0.,-1.));
#446=DIRECTION('',(1.,0.,0.));
#447=DIRECTION('',(0.,0.,-1.));
#448=DIRECTION('',(0.,0.,1.));
#449=DIRECTION('',(1.,0.,0.));
#450=DIRECTION('',(1.,0.,0.));
#451=DIRECTION('',(0.,1.,0.));
#452=DIRECTION('',(0.,0.,1.));
#453=DIRECTION('',(-1.,0.,0.));
#454=DIRECTION('',(0.,0.,1.));
#455=DIRECTION('',(-1.,0.,0.));
#456=DIRECTION('',(0.,0.,1.));
#457=DIRECTION('',(-1.,0.,0.));
#458=DIRECTION('',(0.,0.,1.));
#459=DIRECTION('',(-1.,0.,0.));
#460=DIRECTION('',(0.,0.,1.));
#461=DIRECTION('',(-1.,0.,0.));
#462=DIRECTION('',(0.,0.,1.));
#463=DIRECTION('',(-1.,0.,0.));
#464=DIRECTION('',(0.,0.,1.));
#465=DIRECTION('',(-1.,0.,0.));
#466=DIRECTION('',(0.,0.,1.));
#467=DIRECTION('',(-1.,0.,0.));
#468=DIRECTION('',(0.,0.,1.));
#469=DIRECTION('',(-1.,0.,0.));
#470=DIRECTION('',(0.,0.,1.));
#471=DIRECTION('',(-1.,0.,0.));
#472=DIRECTION('',(0.,0.,1.));
#473=DIRECTION('',(-1.,0.,0.));
#474=DIRECTION('',(0.,0.,1.));
#475=DIRECTION('',(-1.,0.,0.));
#476=DIRECTION('',(0.,0.,1.));
#477=DIRECTION('',(-1.,0.,0.));
#478=DIRECTION('',(0.,0.,1.));
#479=DIRECTION('',(-1.,0.,0.));
#480=DIRECTION('',(0.,0.,1.));
#481=DIRECTION('',(-1.,0.,0.));
#482=DIRECTION('',(0.,0.,1.));
#483=DIRECTION('',(-1.,0.,0.));
#484=DIRECTION('',(0.,0.,1.));
#485=DIRECTION('',(-1.,0.,0.));
#486=DIRECTION('',(0.,0.,1.));
#487=DIRECTION('',(-1.,0.,0.));
#488=DIRECTION('',(0.,0.,1.));
#489=DIRECTION('',(-1.,0.,0.));
#490=CARTESIAN_POINT('',(0.,0.,0.));
#491=CARTESIAN_POINT('',(0.,61.4,0.));
#492=CARTESIAN_POINT('',(0.,0.,0.));
#493=CARTESIAN_POINT('',(0.,0.,-56.1));
#494=CARTESIAN_POINT('',(0.,0.,0.));
#495=CARTESIAN_POINT('',(0.,0.,-61.4));
#496=CARTESIAN_POINT('',(1.09999999999999,0.,0.));
#497=CARTESIAN_POINT('',(1.1,0.,0.));
#498=CARTESIAN_POINT('',(1.1,0.,-55.));
#499=CARTESIAN_POINT('',(20.,0.,0.));
#500=CARTESIAN_POINT('',(18.9,0.,0.));
#501=CARTESIAN_POINT('',(18.9,0.,-55.));
#502=CARTESIAN_POINT('',(18.9,0.,0.));
#503=CARTESIAN_POINT('',(20.,0.,0.));
#504=CARTESIAN_POINT('',(20.,0.,-56.1));
#505=CARTESIAN_POINT('',(20.,56.1,0.));
#506=CARTESIAN_POINT('',(20.,0.,0.));
#507=CARTESIAN_POINT('',(20.,0.,-61.4));
#508=CARTESIAN_POINT('',(20.,0.,0.));
#509=CARTESIAN_POINT('',(14.8,0.,0.));
#510=CARTESIAN_POINT('',(14.8,0.,-61.4));
#511=CARTESIAN_POINT('',(10.,0.,0.));
#512=CARTESIAN_POINT('',(5.2,0.,0.));
#513=CARTESIAN_POINT('',(5.2,0.,-61.4));
#514=CARTESIAN_POINT('',(20.,0.,0.));
#515=CARTESIAN_POINT('',(0.,0.,0.));
#516=CARTESIAN_POINT('',(-1.19262238973405E-15,73.9,0.));
#517=CARTESIAN_POINT('',(0.,0.,0.));
#518=CARTESIAN_POINT('',(0.,0.,-68.6));
#519=CARTESIAN_POINT('',(-3.46944695195361E-15,0.,0.));
#520=CARTESIAN_POINT('',(-3.46944695195361E-15,0.,-73.9));
#521=CARTESIAN_POINT('',(20.,0.,0.));
#522=CARTESIAN_POINT('',(5.19999999999999,0.,0.));
#523=CARTESIAN_POINT('',(5.19999999999999,0.,-68.6));
#524=CARTESIAN_POINT('',(10.,0.,0.));
#525=CARTESIAN_POINT('',(14.8,0.,0.));
#526=CARTESIAN_POINT('',(14.8,0.,-68.6));
#527=CARTESIAN_POINT('',(20.,0.,0.));
#528=CARTESIAN_POINT('',(20.,0.,0.));
#529=CARTESIAN_POINT('',(20.,0.,-68.6));
#530=CARTESIAN_POINT('',(20.,68.6,0.));
#531=CARTESIAN_POINT('',(20.,0.,0.));
#532=CARTESIAN_POINT('',(20.,0.,-73.9));
#533=CARTESIAN_POINT('',(18.9,0.,0.));
#534=CARTESIAN_POINT('',(18.9,0.,0.));
#535=CARTESIAN_POINT('',(18.9,0.,-75.));
#536=CARTESIAN_POINT('',(20.,0.,0.));
#537=CARTESIAN_POINT('',(1.1,0.,0.));
#538=CARTESIAN_POINT('',(1.1,0.,-75.));
#539=CARTESIAN_POINT('',(1.1,0.,0.));
#540=CARTESIAN_POINT('',(0.,0.,0.));
#541=CARTESIAN_POINT('',(0.,-4.33680868994202E-16,0.));
#542=CARTESIAN_POINT('',(-5.9,-7.24100632457325E-17,0.));
#543=CARTESIAN_POINT('',(10.,65.,0.));
#544=CARTESIAN_POINT('',(10.,61.4781207105413,21.1054654983044));
#545=CARTESIAN_POINT('',(10.,51.2941331107656,39.9238263248284));
#546=CARTESIAN_POINT('',(10.,35.5516302779577,54.4158210870643));
#547=CARTESIAN_POINT('',(10.,15.956556664152,63.0110172860565));
#548=CARTESIAN_POINT('',(10.,-5.36765745570158,64.7779920454335));
#549=CARTESIAN_POINT('',(10.,-26.110202602443,59.5252662325787));
#550=CARTESIAN_POINT('',(10.,-44.0233021556731,47.8220541937536));
#551=CARTESIAN_POINT('',(10.,-57.1657938284218,30.9365805474098));
#552=CARTESIAN_POINT('',(10.,-64.1134847211769,10.6986483682477));
#553=CARTESIAN_POINT('',(10.,-64.1134847211769,-10.6986483682477));
#554=CARTESIAN_POINT('',(10.,-57.1657938284218,-30.9365805474097));
#555=CARTESIAN_POINT('',(10.,-44.0233021556732,-47.8220541937535));
#556=CARTESIAN_POINT('',(10.,-26.110202602443,-59.5252662325787));
#557=CARTESIAN_POINT('',(10.,-5.36765745570164,-64.7779920454335));
#558=CARTESIAN_POINT('',(10.,15.9565566641519,-63.0110172860565));
#559=CARTESIAN_POINT('',(10.,35.5516302779577,-54.4158210870644));
#560=CARTESIAN_POINT('',(10.,51.2941331107655,-39.9238263248284));
#561=CARTESIAN_POINT('',(10.,61.4781207105412,-21.1054654983045));
#562=MECHANICAL_DESIGN_GEOMETRIC_PRESENTATION_REPRESENTATION('',(#292,#293,
#294),#563);
#563=(
GEOMETRIC_REPRESENTATION_CONTEXT(3)
GLOBAL_UNCERTAINTY_ASSIGNED_CONTEXT((#567))
GLOBAL_UNIT_ASSIGNED_CONTEXT((#573,#572,#571))
REPRESENTATION_CONTEXT('6922','TOP_LEVEL_ASSEMBLY_PART')
);
#564=(
GEOMETRIC_REPRESENTATION_CONTEXT(3)
GLOBAL_UNCERTAINTY_ASSIGNED_CONTEXT((#568))
GLOBAL_UNIT_ASSIGNED_CONTEXT((#573,#572,#571))
REPRESENTATION_CONTEXT('6922 Inner Ring','COMPONENT_PART')
);
#565=(
GEOMETRIC_REPRESENTATION_CONTEXT(3)
GLOBAL_UNCERTAINTY_ASSIGNED_CONTEXT((#569))
GLOBAL_UNIT_ASSIGNED_CONTEXT((#573,#572,#571))
REPRESENTATION_CONTEXT('6922 Outer Ring','COMPONENT_PART')
);
#566=(
GEOMETRIC_REPRESENTATION_CONTEXT(3)
GLOBAL_UNCERTAINTY_ASSIGNED_CONTEXT((#570))
GLOBAL_UNIT_ASSIGNED_CONTEXT((#573,#572,#571))
REPRESENTATION_CONTEXT('6922 Ball','COMPONENT_PART')
);
#567=UNCERTAINTY_MEASURE_WITH_UNIT(LENGTH_MEASURE(0.005),#573,
'DISTANCE_ACCURACY_VALUE','Maximum Tolerance applied to model');
#568=UNCERTAINTY_MEASURE_WITH_UNIT(LENGTH_MEASURE(0.005),#573,
'DISTANCE_ACCURACY_VALUE','Maximum Tolerance applied to model');
#569=UNCERTAINTY_MEASURE_WITH_UNIT(LENGTH_MEASURE(0.005),#573,
'DISTANCE_ACCURACY_VALUE','Maximum Tolerance applied to model');
#570=UNCERTAINTY_MEASURE_WITH_UNIT(LENGTH_MEASURE(0.005),#573,
'DISTANCE_ACCURACY_VALUE','Maximum Tolerance applied to model');
#571=(
NAMED_UNIT(*)
SI_UNIT($,.STERADIAN.)
SOLID_ANGLE_UNIT()
);
#572=(
NAMED_UNIT(*)
PLANE_ANGLE_UNIT()
SI_UNIT($,.RADIAN.)
);
#573=(
LENGTH_UNIT()
NAMED_UNIT(*)
SI_UNIT(.MILLI.,.METRE.)
);
#574=PRODUCT_DEFINITION_SHAPE('','',#599);
#575=PRODUCT_DEFINITION_SHAPE('','',#600);
#576=PRODUCT_DEFINITION_SHAPE(' ','NAUO PRDDFN',#41);
#577=PRODUCT_DEFINITION_SHAPE('','',#601);
#578=PRODUCT_DEFINITION_SHAPE(' ','NAUO PRDDFN',#42);
#579=PRODUCT_DEFINITION_SHAPE('','',#602);
#580=PRODUCT_DEFINITION_SHAPE(' ','NAUO PRDDFN',#43);
#581=PRODUCT_DEFINITION_SHAPE(' ','NAUO PRDDFN',#44);
#582=PRODUCT_DEFINITION_SHAPE(' ','NAUO PRDDFN',#45);
#583=PRODUCT_DEFINITION_SHAPE(' ','NAUO PRDDFN',#46);
#584=PRODUCT_DEFINITION_SHAPE(' ','NAUO PRDDFN',#47);
#585=PRODUCT_DEFINITION_SHAPE(' ','NAUO PRDDFN',#48);
#586=PRODUCT_DEFINITION_SHAPE(' ','NAUO PRDDFN',#49);
#587=PRODUCT_DEFINITION_SHAPE(' ','NAUO PRDDFN',#50);
#588=PRODUCT_DEFINITION_SHAPE(' ','NAUO PRDDFN',#51);
#589=PRODUCT_DEFINITION_SHAPE(' ','NAUO PRDDFN',#52);
#590=PRODUCT_DEFINITION_SHAPE(' ','NAUO PRDDFN',#53);
#591=PRODUCT_DEFINITION_SHAPE(' ','NAUO PRDDFN',#54);
#592=PRODUCT_DEFINITION_SHAPE(' ','NAUO PRDDFN',#55);
#593=PRODUCT_DEFINITION_SHAPE(' ','NAUO PRDDFN',#56);
#594=PRODUCT_DEFINITION_SHAPE(' ','NAUO PRDDFN',#57);
#595=PRODUCT_DEFINITION_SHAPE(' ','NAUO PRDDFN',#58);
#596=PRODUCT_DEFINITION_SHAPE(' ','NAUO PRDDFN',#59);
#597=PRODUCT_DEFINITION_SHAPE(' ','NAUO PRDDFN',#60);
#598=PRODUCT_DEFINITION_SHAPE(' ','NAUO PRDDFN',#61);
#599=PRODUCT_DEFINITION('','',#607,#603);
#600=PRODUCT_DEFINITION('','',#608,#604);
#601=PRODUCT_DEFINITION('','',#609,#605);
#602=PRODUCT_DEFINITION('','',#610,#606);
#603=PRODUCT_DEFINITION_CONTEXT('',#628,'design');
#604=PRODUCT_DEFINITION_CONTEXT('',#628,'design');
#605=PRODUCT_DEFINITION_CONTEXT('',#628,'design');
#606=PRODUCT_DEFINITION_CONTEXT('',#628,'design');
#607=PRODUCT_DEFINITION_FORMATION_WITH_SPECIFIED_SOURCE('','',#615,
 .NOT_KNOWN.);
#608=PRODUCT_DEFINITION_FORMATION_WITH_SPECIFIED_SOURCE('','',#616,
 .NOT_KNOWN.);
#609=PRODUCT_DEFINITION_FORMATION_WITH_SPECIFIED_SOURCE('','',#617,
 .NOT_KNOWN.);
#610=PRODUCT_DEFINITION_FORMATION_WITH_SPECIFIED_SOURCE('','',#618,
 .NOT_KNOWN.);
#611=PRODUCT_RELATED_PRODUCT_CATEGORY('','',(#615));
#612=PRODUCT_RELATED_PRODUCT_CATEGORY('','',(#616));
#613=PRODUCT_RELATED_PRODUCT_CATEGORY('','',(#617));
#614=PRODUCT_RELATED_PRODUCT_CATEGORY('','',(#618));
#615=PRODUCT('6922','6922','6922',(#623));
#616=PRODUCT('6922 Inner Ring','6922 Inner Ring','6922 Inner Ring',(#624));
#617=PRODUCT('6922 Outer Ring','6922 Outer Ring','6922 Outer Ring',(#625));
#618=PRODUCT('6922 Ball','6922 Ball','6922 Ball',(#626));
#619=PRODUCT_CATEGORY('','');
#620=PRODUCT_CATEGORY('','');
#621=PRODUCT_CATEGORY('','');
#622=PRODUCT_CATEGORY('','');
#623=PRODUCT_CONTEXT('',#628,'mechanical');
#624=PRODUCT_CONTEXT('',#628,'mechanical');
#625=PRODUCT_CONTEXT('',#628,'mechanical');
#626=PRODUCT_CONTEXT('',#628,'mechanical');
#627=APPLICATION_PROTOCOL_DEFINITION('international standard',
'automotive_design',2010,#628);
#628=APPLICATION_CONTEXT(
'core data for automotive mechanical design processes');
ENDSEC;
END-ISO-10303-21;
