ISO-10303-21;
HEADER;
/* Generated by software containing ST-Developer
 * from STEP Tools, Inc. (www.steptools.com) 
 */
/* OPTION: using custom renumber hook */

FILE_DESCRIPTION(
/* description */ ('STEP AP214'),
/* implementation_level */ '2;1');

FILE_NAME(
/* name */ 'NU2307EA',
/* time_stamp */ '2025-09-08T16:16:06+02:00',
/* author */ ('License CC BY-ND 4.0'),
/* organization */ ('CADENAS'),
/* preprocessor_version */ 'ST-DEVELOPER v19.3',
/* originating_system */ 'PARTsolutions',
/* authorisation */ '  ');

FILE_SCHEMA (('AUTOMOTIVE_DESIGN {1 0 10303 214 3 1 1}'));
ENDSEC;

DATA;
#10=PROPERTY_DEFINITION_REPRESENTATION(#14,#12);
#11=PROPERTY_DEFINITION_REPRESENTATION(#15,#13);
#12=REPRESENTATION('',(#16),#551);
#13=REPRESENTATION('',(#17),#551);
#14=PROPERTY_DEFINITION('pmi validation property','',#562);
#15=PROPERTY_DEFINITION('pmi validation property','',#562);
#16=VALUE_REPRESENTATION_ITEM('number of annotations',COUNT_MEASURE(0.));
#17=VALUE_REPRESENTATION_ITEM('number of views',COUNT_MEASURE(0.));
#18=CONTEXT_DEPENDENT_SHAPE_REPRESENTATION(#38,#564);
#19=CONTEXT_DEPENDENT_SHAPE_REPRESENTATION(#39,#566);
#20=CONTEXT_DEPENDENT_SHAPE_REPRESENTATION(#40,#568);
#21=CONTEXT_DEPENDENT_SHAPE_REPRESENTATION(#41,#569);
#22=CONTEXT_DEPENDENT_SHAPE_REPRESENTATION(#42,#570);
#23=CONTEXT_DEPENDENT_SHAPE_REPRESENTATION(#43,#571);
#24=CONTEXT_DEPENDENT_SHAPE_REPRESENTATION(#44,#572);
#25=CONTEXT_DEPENDENT_SHAPE_REPRESENTATION(#45,#573);
#26=CONTEXT_DEPENDENT_SHAPE_REPRESENTATION(#46,#574);
#27=CONTEXT_DEPENDENT_SHAPE_REPRESENTATION(#47,#575);
#28=NEXT_ASSEMBLY_USAGE_OCCURRENCE('NAUO1','NU2307EA Inner ring',
'NU2307EA Inner ring',#576,#577,'');
#29=NEXT_ASSEMBLY_USAGE_OCCURRENCE('NAUO2','NU2307EA Outer ring',
'NU2307EA Outer ring',#576,#578,'');
#30=NEXT_ASSEMBLY_USAGE_OCCURRENCE('NAUO3','NU2307EA Roller',
'NU2307EA Roller',#576,#579,'');
#31=NEXT_ASSEMBLY_USAGE_OCCURRENCE('NAUO4','NU2307EA Roller',
'NU2307EA Roller',#576,#579,'');
#32=NEXT_ASSEMBLY_USAGE_OCCURRENCE('NAUO5','NU2307EA Roller',
'NU2307EA Roller',#576,#579,'');
#33=NEXT_ASSEMBLY_USAGE_OCCURRENCE('NAUO6','NU2307EA Roller',
'NU2307EA Roller',#576,#579,'');
#34=NEXT_ASSEMBLY_USAGE_OCCURRENCE('NAUO7','NU2307EA Roller',
'NU2307EA Roller',#576,#579,'');
#35=NEXT_ASSEMBLY_USAGE_OCCURRENCE('NAUO8','NU2307EA Roller',
'NU2307EA Roller',#576,#579,'');
#36=NEXT_ASSEMBLY_USAGE_OCCURRENCE('NAUO9','NU2307EA Roller',
'NU2307EA Roller',#576,#579,'');
#37=NEXT_ASSEMBLY_USAGE_OCCURRENCE('NAUO10','NU2307EA Roller',
'NU2307EA Roller',#576,#579,'');
#38=(
REPRESENTATION_RELATIONSHIP(' ',' ',#319,#318)
REPRESENTATION_RELATIONSHIP_WITH_TRANSFORMATION(#48)
SHAPE_REPRESENTATION_RELATIONSHIP()
);
#39=(
REPRESENTATION_RELATIONSHIP(' ',' ',#320,#318)
REPRESENTATION_RELATIONSHIP_WITH_TRANSFORMATION(#49)
SHAPE_REPRESENTATION_RELATIONSHIP()
);
#40=(
REPRESENTATION_RELATIONSHIP(' ',' ',#321,#318)
REPRESENTATION_RELATIONSHIP_WITH_TRANSFORMATION(#50)
SHAPE_REPRESENTATION_RELATIONSHIP()
);
#41=(
REPRESENTATION_RELATIONSHIP(' ',' ',#321,#318)
REPRESENTATION_RELATIONSHIP_WITH_TRANSFORMATION(#51)
SHAPE_REPRESENTATION_RELATIONSHIP()
);
#42=(
REPRESENTATION_RELATIONSHIP(' ',' ',#321,#318)
REPRESENTATION_RELATIONSHIP_WITH_TRANSFORMATION(#52)
SHAPE_REPRESENTATION_RELATIONSHIP()
);
#43=(
REPRESENTATION_RELATIONSHIP(' ',' ',#321,#318)
REPRESENTATION_RELATIONSHIP_WITH_TRANSFORMATION(#53)
SHAPE_REPRESENTATION_RELATIONSHIP()
);
#44=(
REPRESENTATION_RELATIONSHIP(' ',' ',#321,#318)
REPRESENTATION_RELATIONSHIP_WITH_TRANSFORMATION(#54)
SHAPE_REPRESENTATION_RELATIONSHIP()
);
#45=(
REPRESENTATION_RELATIONSHIP(' ',' ',#321,#318)
REPRESENTATION_RELATIONSHIP_WITH_TRANSFORMATION(#55)
SHAPE_REPRESENTATION_RELATIONSHIP()
);
#46=(
REPRESENTATION_RELATIONSHIP(' ',' ',#321,#318)
REPRESENTATION_RELATIONSHIP_WITH_TRANSFORMATION(#56)
SHAPE_REPRESENTATION_RELATIONSHIP()
);
#47=(
REPRESENTATION_RELATIONSHIP(' ',' ',#321,#318)
REPRESENTATION_RELATIONSHIP_WITH_TRANSFORMATION(#57)
SHAPE_REPRESENTATION_RELATIONSHIP()
);
#48=ITEM_DEFINED_TRANSFORMATION(' ',' ',#322,#339);
#49=ITEM_DEFINED_TRANSFORMATION(' ',' ',#322,#360);
#50=ITEM_DEFINED_TRANSFORMATION(' ',' ',#322,#366);
#51=ITEM_DEFINED_TRANSFORMATION(' ',' ',#322,#367);
#52=ITEM_DEFINED_TRANSFORMATION(' ',' ',#322,#368);
#53=ITEM_DEFINED_TRANSFORMATION(' ',' ',#322,#369);
#54=ITEM_DEFINED_TRANSFORMATION(' ',' ',#322,#370);
#55=ITEM_DEFINED_TRANSFORMATION(' ',' ',#322,#371);
#56=ITEM_DEFINED_TRANSFORMATION(' ',' ',#322,#372);
#57=ITEM_DEFINED_TRANSFORMATION(' ',' ',#322,#373);
#58=SHAPE_REPRESENTATION_RELATIONSHIP('','',#319,#61);
#59=SHAPE_REPRESENTATION_RELATIONSHIP('','',#320,#62);
#60=SHAPE_REPRESENTATION_RELATIONSHIP('','',#321,#63);
#61=ADVANCED_BREP_SHAPE_REPRESENTATION('',(#311),#552);
#62=ADVANCED_BREP_SHAPE_REPRESENTATION('',(#312),#553);
#63=ADVANCED_BREP_SHAPE_REPRESENTATION('',(#313),#554);
#64=CONICAL_SURFACE('',#334,21.70503,0.172069834678267);
#65=CONICAL_SURFACE('',#338,23.1,0.172069834678267);
#66=CYLINDRICAL_SURFACE('',#328,17.5);
#67=CYLINDRICAL_SURFACE('',#336,23.1);
#68=CYLINDRICAL_SURFACE('',#345,32.125);
#69=CYLINDRICAL_SURFACE('',#349,34.7667);
#70=CYLINDRICAL_SURFACE('',#353,32.125);
#71=CYLINDRICAL_SURFACE('',#359,40.);
#72=CYLINDRICAL_SURFACE('',#363,5.832766665);
#73=TOROIDAL_SURFACE('',#326,18.6,1.1);
#74=TOROIDAL_SURFACE('',#330,18.6,1.09999999999999);
#75=TOROIDAL_SURFACE('',#340,38.5,1.49999999999999);
#76=TOROIDAL_SURFACE('',#357,38.5,1.49999999999999);
#77=ORIENTED_EDGE('',*,*,#117,.T.);
#78=ORIENTED_EDGE('',*,*,#118,.F.);
#79=ORIENTED_EDGE('',*,*,#119,.T.);
#80=ORIENTED_EDGE('',*,*,#117,.F.);
#81=ORIENTED_EDGE('',*,*,#120,.T.);
#82=ORIENTED_EDGE('',*,*,#119,.F.);
#83=ORIENTED_EDGE('',*,*,#121,.T.);
#84=ORIENTED_EDGE('',*,*,#120,.F.);
#85=ORIENTED_EDGE('',*,*,#122,.T.);
#86=ORIENTED_EDGE('',*,*,#121,.F.);
#87=ORIENTED_EDGE('',*,*,#123,.T.);
#88=ORIENTED_EDGE('',*,*,#122,.F.);
#89=ORIENTED_EDGE('',*,*,#124,.T.);
#90=ORIENTED_EDGE('',*,*,#123,.F.);
#91=ORIENTED_EDGE('',*,*,#118,.T.);
#92=ORIENTED_EDGE('',*,*,#124,.F.);
#93=ORIENTED_EDGE('',*,*,#125,.T.);
#94=ORIENTED_EDGE('',*,*,#126,.F.);
#95=ORIENTED_EDGE('',*,*,#127,.T.);
#96=ORIENTED_EDGE('',*,*,#125,.F.);
#97=ORIENTED_EDGE('',*,*,#128,.T.);
#98=ORIENTED_EDGE('',*,*,#127,.F.);
#99=ORIENTED_EDGE('',*,*,#129,.T.);
#100=ORIENTED_EDGE('',*,*,#128,.F.);
#101=ORIENTED_EDGE('',*,*,#130,.T.);
#102=ORIENTED_EDGE('',*,*,#129,.F.);
#103=ORIENTED_EDGE('',*,*,#131,.T.);
#104=ORIENTED_EDGE('',*,*,#130,.F.);
#105=ORIENTED_EDGE('',*,*,#132,.T.);
#106=ORIENTED_EDGE('',*,*,#131,.F.);
#107=ORIENTED_EDGE('',*,*,#133,.T.);
#108=ORIENTED_EDGE('',*,*,#132,.F.);
#109=ORIENTED_EDGE('',*,*,#134,.T.);
#110=ORIENTED_EDGE('',*,*,#133,.F.);
#111=ORIENTED_EDGE('',*,*,#126,.T.);
#112=ORIENTED_EDGE('',*,*,#134,.F.);
#113=ORIENTED_EDGE('',*,*,#135,.F.);
#114=ORIENTED_EDGE('',*,*,#136,.F.);
#115=ORIENTED_EDGE('',*,*,#135,.T.);
#116=ORIENTED_EDGE('',*,*,#136,.T.);
#117=EDGE_CURVE('',#137,#137,#157,.T.);
#118=EDGE_CURVE('',#138,#138,#158,.T.);
#119=EDGE_CURVE('',#139,#139,#159,.T.);
#120=EDGE_CURVE('',#140,#140,#160,.T.);
#121=EDGE_CURVE('',#141,#141,#161,.T.);
#122=EDGE_CURVE('',#142,#142,#162,.T.);
#123=EDGE_CURVE('',#143,#143,#163,.T.);
#124=EDGE_CURVE('',#144,#144,#164,.T.);
#125=EDGE_CURVE('',#145,#145,#165,.T.);
#126=EDGE_CURVE('',#146,#146,#166,.T.);
#127=EDGE_CURVE('',#147,#147,#167,.T.);
#128=EDGE_CURVE('',#148,#148,#168,.T.);
#129=EDGE_CURVE('',#149,#149,#169,.T.);
#130=EDGE_CURVE('',#150,#150,#170,.T.);
#131=EDGE_CURVE('',#151,#151,#171,.T.);
#132=EDGE_CURVE('',#152,#152,#172,.T.);
#133=EDGE_CURVE('',#153,#153,#173,.T.);
#134=EDGE_CURVE('',#154,#154,#174,.T.);
#135=EDGE_CURVE('',#155,#155,#175,.T.);
#136=EDGE_CURVE('',#156,#156,#176,.T.);
#137=VERTEX_POINT('',#481);
#138=VERTEX_POINT('',#483);
#139=VERTEX_POINT('',#486);
#140=VERTEX_POINT('',#489);
#141=VERTEX_POINT('',#492);
#142=VERTEX_POINT('',#495);
#143=VERTEX_POINT('',#498);
#144=VERTEX_POINT('',#501);
#145=VERTEX_POINT('',#506);
#146=VERTEX_POINT('',#508);
#147=VERTEX_POINT('',#511);
#148=VERTEX_POINT('',#514);
#149=VERTEX_POINT('',#517);
#150=VERTEX_POINT('',#520);
#151=VERTEX_POINT('',#523);
#152=VERTEX_POINT('',#526);
#153=VERTEX_POINT('',#529);
#154=VERTEX_POINT('',#532);
#155=VERTEX_POINT('',#537);
#156=VERTEX_POINT('',#540);
#157=CIRCLE('',#324,18.6);
#158=CIRCLE('',#325,21.70503);
#159=CIRCLE('',#327,17.5);
#160=CIRCLE('',#329,17.5);
#161=CIRCLE('',#331,18.6);
#162=CIRCLE('',#333,21.70503);
#163=CIRCLE('',#335,23.1);
#164=CIRCLE('',#337,23.1);
#165=CIRCLE('',#341,38.5);
#166=CIRCLE('',#342,40.);
#167=CIRCLE('',#344,32.125);
#168=CIRCLE('',#346,32.125);
#169=CIRCLE('',#348,34.7667);
#170=CIRCLE('',#350,34.7667);
#171=CIRCLE('',#352,32.125);
#172=CIRCLE('',#354,32.125);
#173=CIRCLE('',#356,38.5);
#174=CIRCLE('',#358,40.);
#175=CIRCLE('',#362,5.832766665);
#176=CIRCLE('',#364,5.832766665);
#177=EDGE_LOOP('',(#77));
#178=EDGE_LOOP('',(#78));
#179=EDGE_LOOP('',(#79));
#180=EDGE_LOOP('',(#80));
#181=EDGE_LOOP('',(#81));
#182=EDGE_LOOP('',(#82));
#183=EDGE_LOOP('',(#83));
#184=EDGE_LOOP('',(#84));
#185=EDGE_LOOP('',(#85));
#186=EDGE_LOOP('',(#86));
#187=EDGE_LOOP('',(#87));
#188=EDGE_LOOP('',(#88));
#189=EDGE_LOOP('',(#89));
#190=EDGE_LOOP('',(#90));
#191=EDGE_LOOP('',(#91));
#192=EDGE_LOOP('',(#92));
#193=EDGE_LOOP('',(#93));
#194=EDGE_LOOP('',(#94));
#195=EDGE_LOOP('',(#95));
#196=EDGE_LOOP('',(#96));
#197=EDGE_LOOP('',(#97));
#198=EDGE_LOOP('',(#98));
#199=EDGE_LOOP('',(#99));
#200=EDGE_LOOP('',(#100));
#201=EDGE_LOOP('',(#101));
#202=EDGE_LOOP('',(#102));
#203=EDGE_LOOP('',(#103));
#204=EDGE_LOOP('',(#104));
#205=EDGE_LOOP('',(#105));
#206=EDGE_LOOP('',(#106));
#207=EDGE_LOOP('',(#107));
#208=EDGE_LOOP('',(#108));
#209=EDGE_LOOP('',(#109));
#210=EDGE_LOOP('',(#110));
#211=EDGE_LOOP('',(#111));
#212=EDGE_LOOP('',(#112));
#213=EDGE_LOOP('',(#113));
#214=EDGE_LOOP('',(#114));
#215=EDGE_LOOP('',(#115));
#216=EDGE_LOOP('',(#116));
#217=FACE_BOUND('',#177,.T.);
#218=FACE_BOUND('',#178,.T.);
#219=FACE_BOUND('',#179,.T.);
#220=FACE_BOUND('',#180,.T.);
#221=FACE_BOUND('',#181,.T.);
#222=FACE_BOUND('',#182,.T.);
#223=FACE_BOUND('',#183,.T.);
#224=FACE_BOUND('',#184,.T.);
#225=FACE_BOUND('',#185,.T.);
#226=FACE_BOUND('',#186,.T.);
#227=FACE_BOUND('',#187,.T.);
#228=FACE_BOUND('',#188,.T.);
#229=FACE_BOUND('',#189,.T.);
#230=FACE_BOUND('',#190,.T.);
#231=FACE_BOUND('',#191,.T.);
#232=FACE_BOUND('',#192,.T.);
#233=FACE_BOUND('',#193,.T.);
#234=FACE_BOUND('',#194,.T.);
#235=FACE_BOUND('',#195,.T.);
#236=FACE_BOUND('',#196,.T.);
#237=FACE_BOUND('',#197,.T.);
#238=FACE_BOUND('',#198,.T.);
#239=FACE_BOUND('',#199,.T.);
#240=FACE_BOUND('',#200,.T.);
#241=FACE_BOUND('',#201,.T.);
#242=FACE_BOUND('',#202,.T.);
#243=FACE_BOUND('',#203,.T.);
#244=FACE_BOUND('',#204,.T.);
#245=FACE_BOUND('',#205,.T.);
#246=FACE_BOUND('',#206,.T.);
#247=FACE_BOUND('',#207,.T.);
#248=FACE_BOUND('',#208,.T.);
#249=FACE_BOUND('',#209,.T.);
#250=FACE_BOUND('',#210,.T.);
#251=FACE_BOUND('',#211,.T.);
#252=FACE_BOUND('',#212,.T.);
#253=FACE_BOUND('',#213,.T.);
#254=FACE_BOUND('',#214,.T.);
#255=FACE_BOUND('',#215,.T.);
#256=FACE_BOUND('',#216,.T.);
#257=PLANE('',#323);
#258=PLANE('',#332);
#259=PLANE('',#343);
#260=PLANE('',#347);
#261=PLANE('',#351);
#262=PLANE('',#355);
#263=PLANE('',#361);
#264=PLANE('',#365);
#265=ADVANCED_FACE('',(#217,#218),#257,.T.);
#266=ADVANCED_FACE('',(#219,#220),#73,.T.);
#267=ADVANCED_FACE('',(#221,#222),#66,.F.);
#268=ADVANCED_FACE('',(#223,#224),#74,.T.);
#269=ADVANCED_FACE('',(#225,#226),#258,.T.);
#270=ADVANCED_FACE('',(#227,#228),#64,.T.);
#271=ADVANCED_FACE('',(#229,#230),#67,.T.);
#272=ADVANCED_FACE('',(#231,#232),#65,.T.);
#273=ADVANCED_FACE('',(#233,#234),#75,.T.);
#274=ADVANCED_FACE('',(#235,#236),#259,.T.);
#275=ADVANCED_FACE('',(#237,#238),#68,.F.);
#276=ADVANCED_FACE('',(#239,#240),#260,.T.);
#277=ADVANCED_FACE('',(#241,#242),#69,.F.);
#278=ADVANCED_FACE('',(#243,#244),#261,.T.);
#279=ADVANCED_FACE('',(#245,#246),#70,.F.);
#280=ADVANCED_FACE('',(#247,#248),#262,.T.);
#281=ADVANCED_FACE('',(#249,#250),#76,.T.);
#282=ADVANCED_FACE('',(#251,#252),#71,.T.);
#283=ADVANCED_FACE('',(#253),#263,.F.);
#284=ADVANCED_FACE('',(#254,#255),#72,.T.);
#285=ADVANCED_FACE('',(#256),#264,.F.);
#286=CLOSED_SHELL('',(#265,#266,#267,#268,#269,#270,#271,#272));
#287=CLOSED_SHELL('',(#273,#274,#275,#276,#277,#278,#279,#280,#281,#282));
#288=CLOSED_SHELL('',(#283,#284,#285));
#289=STYLED_ITEM('',(#292),#311);
#290=STYLED_ITEM('',(#293),#312);
#291=STYLED_ITEM('',(#294),#313);
#292=PRESENTATION_STYLE_ASSIGNMENT((#295));
#293=PRESENTATION_STYLE_ASSIGNMENT((#296));
#294=PRESENTATION_STYLE_ASSIGNMENT((#297));
#295=SURFACE_STYLE_USAGE(.BOTH.,#298);
#296=SURFACE_STYLE_USAGE(.BOTH.,#299);
#297=SURFACE_STYLE_USAGE(.BOTH.,#300);
#298=SURFACE_SIDE_STYLE('',(#301));
#299=SURFACE_SIDE_STYLE('',(#302));
#300=SURFACE_SIDE_STYLE('',(#303));
#301=SURFACE_STYLE_FILL_AREA(#304);
#302=SURFACE_STYLE_FILL_AREA(#305);
#303=SURFACE_STYLE_FILL_AREA(#306);
#304=FILL_AREA_STYLE('',(#307));
#305=FILL_AREA_STYLE('',(#308));
#306=FILL_AREA_STYLE('',(#309));
#307=FILL_AREA_STYLE_COLOUR('',#310);
#308=FILL_AREA_STYLE_COLOUR('',#310);
#309=FILL_AREA_STYLE_COLOUR('',#310);
#310=COLOUR_RGB('',0.689999997615814,0.689999997615814,0.689999997615814);
#311=MANIFOLD_SOLID_BREP('NU2307EA Inner ring',#286);
#312=MANIFOLD_SOLID_BREP('NU2307EA Outer ring',#287);
#313=MANIFOLD_SOLID_BREP('NU2307EA Roller',#288);
#314=SHAPE_DEFINITION_REPRESENTATION(#562,#318);
#315=SHAPE_DEFINITION_REPRESENTATION(#563,#319);
#316=SHAPE_DEFINITION_REPRESENTATION(#565,#320);
#317=SHAPE_DEFINITION_REPRESENTATION(#567,#321);
#318=SHAPE_REPRESENTATION('NU2307EA',(#322,#339,#360,#366,#367,#368,#369,
#370,#371,#372,#373),#551);
#319=SHAPE_REPRESENTATION('NU2307EA Inner ring',(#322),#552);
#320=SHAPE_REPRESENTATION('NU2307EA Outer ring',(#322),#553);
#321=SHAPE_REPRESENTATION('NU2307EA Roller',(#322),#554);
#322=AXIS2_PLACEMENT_3D('',#478,#374,#375);
#323=AXIS2_PLACEMENT_3D('',#479,#376,#377);
#324=AXIS2_PLACEMENT_3D('',#480,#378,#379);
#325=AXIS2_PLACEMENT_3D('',#482,#380,#381);
#326=AXIS2_PLACEMENT_3D('',#484,#382,#383);
#327=AXIS2_PLACEMENT_3D('',#485,#384,#385);
#328=AXIS2_PLACEMENT_3D('',#487,#386,#387);
#329=AXIS2_PLACEMENT_3D('',#488,#388,#389);
#330=AXIS2_PLACEMENT_3D('',#490,#390,#391);
#331=AXIS2_PLACEMENT_3D('',#491,#392,#393);
#332=AXIS2_PLACEMENT_3D('',#493,#394,#395);
#333=AXIS2_PLACEMENT_3D('',#494,#396,#397);
#334=AXIS2_PLACEMENT_3D('',#496,#398,#399);
#335=AXIS2_PLACEMENT_3D('',#497,#400,#401);
#336=AXIS2_PLACEMENT_3D('',#499,#402,#403);
#337=AXIS2_PLACEMENT_3D('',#500,#404,#405);
#338=AXIS2_PLACEMENT_3D('',#502,#406,#407);
#339=AXIS2_PLACEMENT_3D('',#503,#408,#409);
#340=AXIS2_PLACEMENT_3D('',#504,#410,#411);
#341=AXIS2_PLACEMENT_3D('',#505,#412,#413);
#342=AXIS2_PLACEMENT_3D('',#507,#414,#415);
#343=AXIS2_PLACEMENT_3D('',#509,#416,#417);
#344=AXIS2_PLACEMENT_3D('',#510,#418,#419);
#345=AXIS2_PLACEMENT_3D('',#512,#420,#421);
#346=AXIS2_PLACEMENT_3D('',#513,#422,#423);
#347=AXIS2_PLACEMENT_3D('',#515,#424,#425);
#348=AXIS2_PLACEMENT_3D('',#516,#426,#427);
#349=AXIS2_PLACEMENT_3D('',#518,#428,#429);
#350=AXIS2_PLACEMENT_3D('',#519,#430,#431);
#351=AXIS2_PLACEMENT_3D('',#521,#432,#433);
#352=AXIS2_PLACEMENT_3D('',#522,#434,#435);
#353=AXIS2_PLACEMENT_3D('',#524,#436,#437);
#354=AXIS2_PLACEMENT_3D('',#525,#438,#439);
#355=AXIS2_PLACEMENT_3D('',#527,#440,#441);
#356=AXIS2_PLACEMENT_3D('',#528,#442,#443);
#357=AXIS2_PLACEMENT_3D('',#530,#444,#445);
#358=AXIS2_PLACEMENT_3D('',#531,#446,#447);
#359=AXIS2_PLACEMENT_3D('',#533,#448,#449);
#360=AXIS2_PLACEMENT_3D('',#534,#450,#451);
#361=AXIS2_PLACEMENT_3D('',#535,#452,#453);
#362=AXIS2_PLACEMENT_3D('',#536,#454,#455);
#363=AXIS2_PLACEMENT_3D('',#538,#456,#457);
#364=AXIS2_PLACEMENT_3D('',#539,#458,#459);
#365=AXIS2_PLACEMENT_3D('',#541,#460,#461);
#366=AXIS2_PLACEMENT_3D('',#542,#462,#463);
#367=AXIS2_PLACEMENT_3D('',#543,#464,#465);
#368=AXIS2_PLACEMENT_3D('',#544,#466,#467);
#369=AXIS2_PLACEMENT_3D('',#545,#468,#469);
#370=AXIS2_PLACEMENT_3D('',#546,#470,#471);
#371=AXIS2_PLACEMENT_3D('',#547,#472,#473);
#372=AXIS2_PLACEMENT_3D('',#548,#474,#475);
#373=AXIS2_PLACEMENT_3D('',#549,#476,#477);
#374=DIRECTION('',(0.,0.,1.));
#375=DIRECTION('',(1.,0.,0.));
#376=DIRECTION('',(-1.,0.,0.));
#377=DIRECTION('',(0.,0.,1.));
#378=DIRECTION('',(1.,0.,0.));
#379=DIRECTION('',(0.,0.,-1.));
#380=DIRECTION('',(1.,0.,0.));
#381=DIRECTION('',(0.,0.,-1.));
#382=DIRECTION('',(1.,0.,0.));
#383=DIRECTION('',(0.,0.,-1.));
#384=DIRECTION('',(1.,0.,0.));
#385=DIRECTION('',(0.,0.,-1.));
#386=DIRECTION('',(1.,0.,0.));
#387=DIRECTION('',(0.,0.,-1.));
#388=DIRECTION('',(1.,0.,0.));
#389=DIRECTION('',(0.,0.,-1.));
#390=DIRECTION('',(1.,0.,0.));
#391=DIRECTION('',(0.,0.,-1.));
#392=DIRECTION('',(1.,0.,0.));
#393=DIRECTION('',(0.,0.,-1.));
#394=DIRECTION('',(1.,0.,0.));
#395=DIRECTION('',(0.,0.,-1.));
#396=DIRECTION('',(1.,0.,0.));
#397=DIRECTION('',(0.,0.,-1.));
#398=DIRECTION('',(-1.,0.,0.));
#399=DIRECTION('',(0.,0.,1.));
#400=DIRECTION('',(1.,0.,0.));
#401=DIRECTION('',(0.,0.,-1.));
#402=DIRECTION('',(1.,0.,0.));
#403=DIRECTION('',(0.,0.,-1.));
#404=DIRECTION('',(1.,0.,0.));
#405=DIRECTION('',(0.,0.,-1.));
#406=DIRECTION('',(1.,0.,0.));
#407=DIRECTION('',(0.,0.,-1.));
#408=DIRECTION('',(0.,0.,1.));
#409=DIRECTION('',(1.,0.,0.));
#410=DIRECTION('',(1.,0.,0.));
#411=DIRECTION('',(0.,0.,-1.));
#412=DIRECTION('',(1.,0.,0.));
#413=DIRECTION('',(0.,0.,-1.));
#414=DIRECTION('',(1.,0.,0.));
#415=DIRECTION('',(0.,0.,-1.));
#416=DIRECTION('',(-1.,0.,0.));
#417=DIRECTION('',(0.,0.,1.));
#418=DIRECTION('',(1.,0.,0.));
#419=DIRECTION('',(0.,0.,-1.));
#420=DIRECTION('',(1.,0.,0.));
#421=DIRECTION('',(0.,0.,-1.));
#422=DIRECTION('',(1.,0.,0.));
#423=DIRECTION('',(0.,0.,-1.));
#424=DIRECTION('',(1.,0.,0.));
#425=DIRECTION('',(0.,0.,-1.));
#426=DIRECTION('',(1.,0.,0.));
#427=DIRECTION('',(0.,0.,-1.));
#428=DIRECTION('',(1.,0.,0.));
#429=DIRECTION('',(0.,0.,-1.));
#430=DIRECTION('',(1.,0.,0.));
#431=DIRECTION('',(0.,0.,-1.));
#432=DIRECTION('',(-1.,0.,0.));
#433=DIRECTION('',(0.,0.,1.));
#434=DIRECTION('',(1.,0.,0.));
#435=DIRECTION('',(0.,0.,-1.));
#436=DIRECTION('',(1.,0.,0.));
#437=DIRECTION('',(0.,0.,-1.));
#438=DIRECTION('',(1.,0.,0.));
#439=DIRECTION('',(0.,0.,-1.));
#440=DIRECTION('',(1.,0.,0.));
#441=DIRECTION('',(0.,0.,-1.));
#442=DIRECTION('',(1.,0.,0.));
#443=DIRECTION('',(0.,0.,-1.));
#444=DIRECTION('',(1.,0.,0.));
#445=DIRECTION('',(0.,0.,-1.));
#446=DIRECTION('',(1.,0.,0.));
#447=DIRECTION('',(0.,0.,-1.));
#448=DIRECTION('',(1.,0.,0.));
#449=DIRECTION('',(0.,0.,-1.));
#450=DIRECTION('',(0.,0.,1.));
#451=DIRECTION('',(1.,0.,0.));
#452=DIRECTION('',(1.,0.,0.));
#453=DIRECTION('',(0.,0.,-1.));
#454=DIRECTION('',(1.,0.,0.));
#455=DIRECTION('',(0.,0.,-1.));
#456=DIRECTION('',(1.,0.,0.));
#457=DIRECTION('',(0.,0.,-1.));
#458=DIRECTION('',(1.,0.,0.));
#459=DIRECTION('',(0.,0.,-1.));
#460=DIRECTION('',(-1.,0.,0.));
#461=DIRECTION('',(0.,0.,1.));
#462=DIRECTION('',(0.,0.,1.));
#463=DIRECTION('',(1.,0.,0.));
#464=DIRECTION('',(0.,0.,1.));
#465=DIRECTION('',(1.,0.,0.));
#466=DIRECTION('',(0.,0.,1.));
#467=DIRECTION('',(1.,0.,0.));
#468=DIRECTION('',(0.,0.,1.));
#469=DIRECTION('',(1.,0.,0.));
#470=DIRECTION('',(0.,0.,1.));
#471=DIRECTION('',(1.,0.,0.));
#472=DIRECTION('',(0.,0.,1.));
#473=DIRECTION('',(1.,0.,0.));
#474=DIRECTION('',(0.,0.,1.));
#475=DIRECTION('',(1.,0.,0.));
#476=DIRECTION('',(0.,0.,1.));
#477=DIRECTION('',(1.,0.,0.));
#478=CARTESIAN_POINT('',(0.,0.,0.));
#479=CARTESIAN_POINT('',(0.,21.70503,0.));
#480=CARTESIAN_POINT('',(0.,0.,0.));
#481=CARTESIAN_POINT('',(0.,0.,-18.6));
#482=CARTESIAN_POINT('',(0.,0.,0.));
#483=CARTESIAN_POINT('',(0.,0.,-21.70503));
#484=CARTESIAN_POINT('',(1.1,0.,0.));
#485=CARTESIAN_POINT('',(1.1,0.,0.));
#486=CARTESIAN_POINT('',(1.1,0.,-17.5));
#487=CARTESIAN_POINT('',(31.,0.,0.));
#488=CARTESIAN_POINT('',(29.9,0.,0.));
#489=CARTESIAN_POINT('',(29.9,0.,-17.5));
#490=CARTESIAN_POINT('',(29.9,0.,0.));
#491=CARTESIAN_POINT('',(31.,0.,0.));
#492=CARTESIAN_POINT('',(31.,0.,-18.6));
#493=CARTESIAN_POINT('',(31.,18.6,0.));
#494=CARTESIAN_POINT('',(31.,0.,0.));
#495=CARTESIAN_POINT('',(31.,0.,-21.70503));
#496=CARTESIAN_POINT('',(31.,0.,0.));
#497=CARTESIAN_POINT('',(22.97317,0.,0.));
#498=CARTESIAN_POINT('',(22.97317,0.,-23.1));
#499=CARTESIAN_POINT('',(31.,0.,0.));
#500=CARTESIAN_POINT('',(8.02683,0.,0.));
#501=CARTESIAN_POINT('',(8.02683,0.,-23.1));
#502=CARTESIAN_POINT('',(8.02683,0.,0.));
#503=CARTESIAN_POINT('',(0.,0.,0.));
#504=CARTESIAN_POINT('',(1.49999999999999,0.,0.));
#505=CARTESIAN_POINT('',(0.,0.,0.));
#506=CARTESIAN_POINT('',(0.,0.,-38.5));
#507=CARTESIAN_POINT('',(1.5,0.,0.));
#508=CARTESIAN_POINT('',(1.5,0.,-40.));
#509=CARTESIAN_POINT('',(0.,38.5,0.));
#510=CARTESIAN_POINT('',(0.,0.,0.));
#511=CARTESIAN_POINT('',(0.,0.,-32.125));
#512=CARTESIAN_POINT('',(31.,0.,0.));
#513=CARTESIAN_POINT('',(8.02683,0.,0.));
#514=CARTESIAN_POINT('',(8.02683,0.,-32.125));
#515=CARTESIAN_POINT('',(8.02683,32.125,0.));
#516=CARTESIAN_POINT('',(8.02683,0.,0.));
#517=CARTESIAN_POINT('',(8.02683,0.,-34.7667));
#518=CARTESIAN_POINT('',(31.,0.,0.));
#519=CARTESIAN_POINT('',(22.97317,0.,0.));
#520=CARTESIAN_POINT('',(22.97317,0.,-34.7667));
#521=CARTESIAN_POINT('',(22.97317,34.7667,0.));
#522=CARTESIAN_POINT('',(22.97317,0.,0.));
#523=CARTESIAN_POINT('',(22.97317,0.,-32.125));
#524=CARTESIAN_POINT('',(31.,0.,0.));
#525=CARTESIAN_POINT('',(31.,0.,0.));
#526=CARTESIAN_POINT('',(31.,0.,-32.125));
#527=CARTESIAN_POINT('',(31.,32.125,0.));
#528=CARTESIAN_POINT('',(31.,0.,0.));
#529=CARTESIAN_POINT('',(31.,0.,-38.5));
#530=CARTESIAN_POINT('',(29.5,0.,0.));
#531=CARTESIAN_POINT('',(29.5,0.,0.));
#532=CARTESIAN_POINT('',(29.5,0.,-40.));
#533=CARTESIAN_POINT('',(31.,0.,0.));
#534=CARTESIAN_POINT('',(0.,0.,0.));
#535=CARTESIAN_POINT('',(0.1494634,0.,0.));
#536=CARTESIAN_POINT('',(0.149463399999999,0.,0.));
#537=CARTESIAN_POINT('',(0.149463399999999,0.,-5.832766665));
#538=CARTESIAN_POINT('',(14.7968766,0.,0.));
#539=CARTESIAN_POINT('',(14.7968766,0.,0.));
#540=CARTESIAN_POINT('',(14.7968766,0.,-5.832766665));
#541=CARTESIAN_POINT('',(14.7968766,5.832766665,0.));
#542=CARTESIAN_POINT('',(8.02683,28.93335,0.));
#543=CARTESIAN_POINT('',(8.02683,20.4589679874438,20.4589679874438));
#544=CARTESIAN_POINT('',(8.02683,0.,28.93335));
#545=CARTESIAN_POINT('',(8.02683,-20.4589679874438,20.4589679874438));
#546=CARTESIAN_POINT('',(8.02683,-28.93335,0.));
#547=CARTESIAN_POINT('',(8.02683,-20.4589679874438,-20.4589679874438));
#548=CARTESIAN_POINT('',(8.02683,0.,-28.93335));
#549=CARTESIAN_POINT('',(8.02683,20.4589679874438,-20.4589679874438));
#550=MECHANICAL_DESIGN_GEOMETRIC_PRESENTATION_REPRESENTATION('',(#289,#290,
#291),#551);
#551=(
GEOMETRIC_REPRESENTATION_CONTEXT(3)
GLOBAL_UNCERTAINTY_ASSIGNED_CONTEXT((#555))
GLOBAL_UNIT_ASSIGNED_CONTEXT((#561,#560,#559))
REPRESENTATION_CONTEXT('NU2307EA','TOP_LEVEL_ASSEMBLY_PART')
);
#552=(
GEOMETRIC_REPRESENTATION_CONTEXT(3)
GLOBAL_UNCERTAINTY_ASSIGNED_CONTEXT((#556))
GLOBAL_UNIT_ASSIGNED_CONTEXT((#561,#560,#559))
REPRESENTATION_CONTEXT('NU2307EA Inner ring','COMPONENT_PART')
);
#553=(
GEOMETRIC_REPRESENTATION_CONTEXT(3)
GLOBAL_UNCERTAINTY_ASSIGNED_CONTEXT((#557))
GLOBAL_UNIT_ASSIGNED_CONTEXT((#561,#560,#559))
REPRESENTATION_CONTEXT('NU2307EA Outer ring','COMPONENT_PART')
);
#554=(
GEOMETRIC_REPRESENTATION_CONTEXT(3)
GLOBAL_UNCERTAINTY_ASSIGNED_CONTEXT((#558))
GLOBAL_UNIT_ASSIGNED_CONTEXT((#561,#560,#559))
REPRESENTATION_CONTEXT('NU2307EA Roller','COMPONENT_PART')
);
#555=UNCERTAINTY_MEASURE_WITH_UNIT(LENGTH_MEASURE(0.005),#561,
'DISTANCE_ACCURACY_VALUE','Maximum Tolerance applied to model');
#556=UNCERTAINTY_MEASURE_WITH_UNIT(LENGTH_MEASURE(0.005),#561,
'DISTANCE_ACCURACY_VALUE','Maximum Tolerance applied to model');
#557=UNCERTAINTY_MEASURE_WITH_UNIT(LENGTH_MEASURE(0.005),#561,
'DISTANCE_ACCURACY_VALUE','Maximum Tolerance applied to model');
#558=UNCERTAINTY_MEASURE_WITH_UNIT(LENGTH_MEASURE(0.005),#561,
'DISTANCE_ACCURACY_VALUE','Maximum Tolerance applied to model');
#559=(
NAMED_UNIT(*)
SI_UNIT($,.STERADIAN.)
SOLID_ANGLE_UNIT()
);
#560=(
NAMED_UNIT(*)
PLANE_ANGLE_UNIT()
SI_UNIT($,.RADIAN.)
);
#561=(
LENGTH_UNIT()
NAMED_UNIT(*)
SI_UNIT(.MILLI.,.METRE.)
);
#562=PRODUCT_DEFINITION_SHAPE('','',#576);
#563=PRODUCT_DEFINITION_SHAPE('','',#577);
#564=PRODUCT_DEFINITION_SHAPE(' ','NAUO PRDDFN',#28);
#565=PRODUCT_DEFINITION_SHAPE('','',#578);
#566=PRODUCT_DEFINITION_SHAPE(' ','NAUO PRDDFN',#29);
#567=PRODUCT_DEFINITION_SHAPE('','',#579);
#568=PRODUCT_DEFINITION_SHAPE(' ','NAUO PRDDFN',#30);
#569=PRODUCT_DEFINITION_SHAPE(' ','NAUO PRDDFN',#31);
#570=PRODUCT_DEFINITION_SHAPE(' ','NAUO PRDDFN',#32);
#571=PRODUCT_DEFINITION_SHAPE(' ','NAUO PRDDFN',#33);
#572=PRODUCT_DEFINITION_SHAPE(' ','NAUO PRDDFN',#34);
#573=PRODUCT_DEFINITION_SHAPE(' ','NAUO PRDDFN',#35);
#574=PRODUCT_DEFINITION_SHAPE(' ','NAUO PRDDFN',#36);
#575=PRODUCT_DEFINITION_SHAPE(' ','NAUO PRDDFN',#37);
#576=PRODUCT_DEFINITION('','',#584,#580);
#577=PRODUCT_DEFINITION('','',#585,#581);
#578=PRODUCT_DEFINITION('','',#586,#582);
#579=PRODUCT_DEFINITION('','',#587,#583);
#580=PRODUCT_DEFINITION_CONTEXT('',#605,'design');
#581=PRODUCT_DEFINITION_CONTEXT('',#605,'design');
#582=PRODUCT_DEFINITION_CONTEXT('',#605,'design');
#583=PRODUCT_DEFINITION_CONTEXT('',#605,'design');
#584=PRODUCT_DEFINITION_FORMATION_WITH_SPECIFIED_SOURCE('','',#592,
 .NOT_KNOWN.);
#585=PRODUCT_DEFINITION_FORMATION_WITH_SPECIFIED_SOURCE('','',#593,
 .NOT_KNOWN.);
#586=PRODUCT_DEFINITION_FORMATION_WITH_SPECIFIED_SOURCE('','',#594,
 .NOT_KNOWN.);
#587=PRODUCT_DEFINITION_FORMATION_WITH_SPECIFIED_SOURCE('','',#595,
 .NOT_KNOWN.);
#588=PRODUCT_RELATED_PRODUCT_CATEGORY('','',(#592));
#589=PRODUCT_RELATED_PRODUCT_CATEGORY('','',(#593));
#590=PRODUCT_RELATED_PRODUCT_CATEGORY('','',(#594));
#591=PRODUCT_RELATED_PRODUCT_CATEGORY('','',(#595));
#592=PRODUCT('NU2307EA','NU2307EA','NU2307EA',(#600));
#593=PRODUCT('NU2307EA Inner ring','NU2307EA Inner ring',
'NU2307EA Inner ring',(#601));
#594=PRODUCT('NU2307EA Outer ring','NU2307EA Outer ring',
'NU2307EA Outer ring',(#602));
#595=PRODUCT('NU2307EA Roller','NU2307EA Roller','NU2307EA Roller',(#603));
#596=PRODUCT_CATEGORY('','');
#597=PRODUCT_CATEGORY('','');
#598=PRODUCT_CATEGORY('','');
#599=PRODUCT_CATEGORY('','');
#600=PRODUCT_CONTEXT('',#605,'mechanical');
#601=PRODUCT_CONTEXT('',#605,'mechanical');
#602=PRODUCT_CONTEXT('',#605,'mechanical');
#603=PRODUCT_CONTEXT('',#605,'mechanical');
#604=APPLICATION_PROTOCOL_DEFINITION('international standard',
'automotive_design',2010,#605);
#605=APPLICATION_CONTEXT(
'core data for automotive mechanical design processes');
ENDSEC;
END-ISO-10303-21;
