ISO-10303-21;
HEADER;
/* Generated by software containing ST-Developer
 * from STEP Tools, Inc. (www.steptools.com) 
 */
/* OPTION: using custom renumber hook */

FILE_DESCRIPTION(
/* description */ ('STEP AP214'),
/* implementation_level */ '2;1');

FILE_NAME(
/* name */ '51107',
/* time_stamp */ '2025-09-10T06:50:24+02:00',
/* author */ ('License CC BY-ND 4.0'),
/* organization */ ('CADENAS'),
/* preprocessor_version */ 'ST-DEVELOPER v19.3',
/* originating_system */ 'PARTsolutions',
/* authorisation */ '  ');

FILE_SCHEMA (('AUTOMOTIVE_DESIGN {1 0 10303 214 3 1 1}'));
ENDSEC;

DATA;
#10=PROPERTY_DEFINITION_REPRESENTATION(#14,#12);
#11=PROPERTY_DEFINITION_REPRESENTATION(#15,#13);
#12=REPRESENTATION('',(#16),#507);
#13=REPRESENTATION('',(#17),#507);
#14=PROPERTY_DEFINITION('pmi validation property','',#518);
#15=PROPERTY_DEFINITION('pmi validation property','',#518);
#16=VALUE_REPRESENTATION_ITEM('number of annotations',COUNT_MEASURE(0.));
#17=VALUE_REPRESENTATION_ITEM('number of views',COUNT_MEASURE(0.));
#18=VERTEX_LOOP('',#158);
#19=SPHERICAL_SURFACE('',#332,3.36);
#20=CONTEXT_DEPENDENT_SHAPE_REPRESENTATION(#48,#520);
#21=CONTEXT_DEPENDENT_SHAPE_REPRESENTATION(#49,#522);
#22=CONTEXT_DEPENDENT_SHAPE_REPRESENTATION(#50,#524);
#23=CONTEXT_DEPENDENT_SHAPE_REPRESENTATION(#51,#525);
#24=CONTEXT_DEPENDENT_SHAPE_REPRESENTATION(#52,#526);
#25=CONTEXT_DEPENDENT_SHAPE_REPRESENTATION(#53,#527);
#26=CONTEXT_DEPENDENT_SHAPE_REPRESENTATION(#54,#528);
#27=CONTEXT_DEPENDENT_SHAPE_REPRESENTATION(#55,#529);
#28=CONTEXT_DEPENDENT_SHAPE_REPRESENTATION(#56,#530);
#29=CONTEXT_DEPENDENT_SHAPE_REPRESENTATION(#57,#531);
#30=CONTEXT_DEPENDENT_SHAPE_REPRESENTATION(#58,#532);
#31=CONTEXT_DEPENDENT_SHAPE_REPRESENTATION(#59,#533);
#32=CONTEXT_DEPENDENT_SHAPE_REPRESENTATION(#60,#534);
#33=CONTEXT_DEPENDENT_SHAPE_REPRESENTATION(#61,#535);
#34=NEXT_ASSEMBLY_USAGE_OCCURRENCE('NAUO1','51107 Housing raceway disc',
'51107 Housing raceway disc',#536,#537,'');
#35=NEXT_ASSEMBLY_USAGE_OCCURRENCE('NAUO2','51107 Shaft raceway disc',
'51107 Shaft raceway disc',#536,#538,'');
#36=NEXT_ASSEMBLY_USAGE_OCCURRENCE('NAUO3','51107 Ball','51107 Ball',#536,
#539,'');
#37=NEXT_ASSEMBLY_USAGE_OCCURRENCE('NAUO4','51107 Ball','51107 Ball',#536,
#539,'');
#38=NEXT_ASSEMBLY_USAGE_OCCURRENCE('NAUO5','51107 Ball','51107 Ball',#536,
#539,'');
#39=NEXT_ASSEMBLY_USAGE_OCCURRENCE('NAUO6','51107 Ball','51107 Ball',#536,
#539,'');
#40=NEXT_ASSEMBLY_USAGE_OCCURRENCE('NAUO7','51107 Ball','51107 Ball',#536,
#539,'');
#41=NEXT_ASSEMBLY_USAGE_OCCURRENCE('NAUO8','51107 Ball','51107 Ball',#536,
#539,'');
#42=NEXT_ASSEMBLY_USAGE_OCCURRENCE('NAUO9','51107 Ball','51107 Ball',#536,
#539,'');
#43=NEXT_ASSEMBLY_USAGE_OCCURRENCE('NAUO10','51107 Ball','51107 Ball',#536,
#539,'');
#44=NEXT_ASSEMBLY_USAGE_OCCURRENCE('NAUO11','51107 Ball','51107 Ball',#536,
#539,'');
#45=NEXT_ASSEMBLY_USAGE_OCCURRENCE('NAUO12','51107 Ball','51107 Ball',#536,
#539,'');
#46=NEXT_ASSEMBLY_USAGE_OCCURRENCE('NAUO13','51107 Ball','51107 Ball',#536,
#539,'');
#47=NEXT_ASSEMBLY_USAGE_OCCURRENCE('NAUO14','51107 Ball','51107 Ball',#536,
#539,'');
#48=(
REPRESENTATION_RELATIONSHIP(' ',' ',#294,#293)
REPRESENTATION_RELATIONSHIP_WITH_TRANSFORMATION(#62)
SHAPE_REPRESENTATION_RELATIONSHIP()
);
#49=(
REPRESENTATION_RELATIONSHIP(' ',' ',#295,#293)
REPRESENTATION_RELATIONSHIP_WITH_TRANSFORMATION(#63)
SHAPE_REPRESENTATION_RELATIONSHIP()
);
#50=(
REPRESENTATION_RELATIONSHIP(' ',' ',#296,#293)
REPRESENTATION_RELATIONSHIP_WITH_TRANSFORMATION(#64)
SHAPE_REPRESENTATION_RELATIONSHIP()
);
#51=(
REPRESENTATION_RELATIONSHIP(' ',' ',#296,#293)
REPRESENTATION_RELATIONSHIP_WITH_TRANSFORMATION(#65)
SHAPE_REPRESENTATION_RELATIONSHIP()
);
#52=(
REPRESENTATION_RELATIONSHIP(' ',' ',#296,#293)
REPRESENTATION_RELATIONSHIP_WITH_TRANSFORMATION(#66)
SHAPE_REPRESENTATION_RELATIONSHIP()
);
#53=(
REPRESENTATION_RELATIONSHIP(' ',' ',#296,#293)
REPRESENTATION_RELATIONSHIP_WITH_TRANSFORMATION(#67)
SHAPE_REPRESENTATION_RELATIONSHIP()
);
#54=(
REPRESENTATION_RELATIONSHIP(' ',' ',#296,#293)
REPRESENTATION_RELATIONSHIP_WITH_TRANSFORMATION(#68)
SHAPE_REPRESENTATION_RELATIONSHIP()
);
#55=(
REPRESENTATION_RELATIONSHIP(' ',' ',#296,#293)
REPRESENTATION_RELATIONSHIP_WITH_TRANSFORMATION(#69)
SHAPE_REPRESENTATION_RELATIONSHIP()
);
#56=(
REPRESENTATION_RELATIONSHIP(' ',' ',#296,#293)
REPRESENTATION_RELATIONSHIP_WITH_TRANSFORMATION(#70)
SHAPE_REPRESENTATION_RELATIONSHIP()
);
#57=(
REPRESENTATION_RELATIONSHIP(' ',' ',#296,#293)
REPRESENTATION_RELATIONSHIP_WITH_TRANSFORMATION(#71)
SHAPE_REPRESENTATION_RELATIONSHIP()
);
#58=(
REPRESENTATION_RELATIONSHIP(' ',' ',#296,#293)
REPRESENTATION_RELATIONSHIP_WITH_TRANSFORMATION(#72)
SHAPE_REPRESENTATION_RELATIONSHIP()
);
#59=(
REPRESENTATION_RELATIONSHIP(' ',' ',#296,#293)
REPRESENTATION_RELATIONSHIP_WITH_TRANSFORMATION(#73)
SHAPE_REPRESENTATION_RELATIONSHIP()
);
#60=(
REPRESENTATION_RELATIONSHIP(' ',' ',#296,#293)
REPRESENTATION_RELATIONSHIP_WITH_TRANSFORMATION(#74)
SHAPE_REPRESENTATION_RELATIONSHIP()
);
#61=(
REPRESENTATION_RELATIONSHIP(' ',' ',#296,#293)
REPRESENTATION_RELATIONSHIP_WITH_TRANSFORMATION(#75)
SHAPE_REPRESENTATION_RELATIONSHIP()
);
#62=ITEM_DEFINED_TRANSFORMATION(' ',' ',#297,#314);
#63=ITEM_DEFINED_TRANSFORMATION(' ',' ',#297,#331);
#64=ITEM_DEFINED_TRANSFORMATION(' ',' ',#297,#333);
#65=ITEM_DEFINED_TRANSFORMATION(' ',' ',#297,#334);
#66=ITEM_DEFINED_TRANSFORMATION(' ',' ',#297,#335);
#67=ITEM_DEFINED_TRANSFORMATION(' ',' ',#297,#336);
#68=ITEM_DEFINED_TRANSFORMATION(' ',' ',#297,#337);
#69=ITEM_DEFINED_TRANSFORMATION(' ',' ',#297,#338);
#70=ITEM_DEFINED_TRANSFORMATION(' ',' ',#297,#339);
#71=ITEM_DEFINED_TRANSFORMATION(' ',' ',#297,#340);
#72=ITEM_DEFINED_TRANSFORMATION(' ',' ',#297,#341);
#73=ITEM_DEFINED_TRANSFORMATION(' ',' ',#297,#342);
#74=ITEM_DEFINED_TRANSFORMATION(' ',' ',#297,#343);
#75=ITEM_DEFINED_TRANSFORMATION(' ',' ',#297,#344);
#76=SHAPE_REPRESENTATION_RELATIONSHIP('','',#294,#79);
#77=SHAPE_REPRESENTATION_RELATIONSHIP('','',#295,#80);
#78=SHAPE_REPRESENTATION_RELATIONSHIP('','',#296,#81);
#79=ADVANCED_BREP_SHAPE_REPRESENTATION('',(#286),#508);
#80=ADVANCED_BREP_SHAPE_REPRESENTATION('',(#287),#509);
#81=ADVANCED_BREP_SHAPE_REPRESENTATION('',(#288),#510);
#82=PLANE('',#303);
#83=PLANE('',#309);
#84=PLANE('',#313);
#85=PLANE('',#318);
#86=PLANE('',#322);
#87=PLANE('',#328);
#88=TOROIDAL_SURFACE('',#301,25.4,0.600000000000003);
#89=TOROIDAL_SURFACE('',#305,19.1,0.600000000000004);
#90=TOROIDAL_SURFACE('',#311,21.75,3.36);
#91=TOROIDAL_SURFACE('',#320,21.75,3.36);
#92=TOROIDAL_SURFACE('',#326,18.1,0.6);
#93=TOROIDAL_SURFACE('',#330,25.4,0.600000000000009);
#94=ORIENTED_EDGE('',*,*,#126,.T.);
#95=ORIENTED_EDGE('',*,*,#127,.F.);
#96=ORIENTED_EDGE('',*,*,#128,.T.);
#97=ORIENTED_EDGE('',*,*,#126,.F.);
#98=ORIENTED_EDGE('',*,*,#129,.T.);
#99=ORIENTED_EDGE('',*,*,#128,.F.);
#100=ORIENTED_EDGE('',*,*,#130,.T.);
#101=ORIENTED_EDGE('',*,*,#129,.F.);
#102=ORIENTED_EDGE('',*,*,#131,.T.);
#103=ORIENTED_EDGE('',*,*,#130,.F.);
#104=ORIENTED_EDGE('',*,*,#132,.T.);
#105=ORIENTED_EDGE('',*,*,#131,.F.);
#106=ORIENTED_EDGE('',*,*,#132,.F.);
#107=ORIENTED_EDGE('',*,*,#133,.T.);
#108=ORIENTED_EDGE('',*,*,#127,.T.);
#109=ORIENTED_EDGE('',*,*,#133,.F.);
#110=ORIENTED_EDGE('',*,*,#134,.T.);
#111=ORIENTED_EDGE('',*,*,#135,.F.);
#112=ORIENTED_EDGE('',*,*,#136,.T.);
#113=ORIENTED_EDGE('',*,*,#134,.F.);
#114=ORIENTED_EDGE('',*,*,#136,.F.);
#115=ORIENTED_EDGE('',*,*,#137,.T.);
#116=ORIENTED_EDGE('',*,*,#138,.T.);
#117=ORIENTED_EDGE('',*,*,#137,.F.);
#118=ORIENTED_EDGE('',*,*,#139,.T.);
#119=ORIENTED_EDGE('',*,*,#138,.F.);
#120=ORIENTED_EDGE('',*,*,#140,.T.);
#121=ORIENTED_EDGE('',*,*,#139,.F.);
#122=ORIENTED_EDGE('',*,*,#141,.T.);
#123=ORIENTED_EDGE('',*,*,#140,.F.);
#124=ORIENTED_EDGE('',*,*,#135,.T.);
#125=ORIENTED_EDGE('',*,*,#141,.F.);
#126=EDGE_CURVE('',#142,#142,#159,.T.);
#127=EDGE_CURVE('',#143,#143,#160,.T.);
#128=EDGE_CURVE('',#144,#144,#161,.T.);
#129=EDGE_CURVE('',#145,#145,#162,.T.);
#130=EDGE_CURVE('',#146,#146,#163,.T.);
#131=EDGE_CURVE('',#147,#147,#164,.T.);
#132=EDGE_CURVE('',#148,#148,#165,.T.);
#133=EDGE_CURVE('',#149,#149,#166,.T.);
#134=EDGE_CURVE('',#150,#150,#167,.T.);
#135=EDGE_CURVE('',#151,#151,#168,.T.);
#136=EDGE_CURVE('',#152,#152,#169,.T.);
#137=EDGE_CURVE('',#153,#153,#170,.T.);
#138=EDGE_CURVE('',#154,#154,#171,.T.);
#139=EDGE_CURVE('',#155,#155,#172,.T.);
#140=EDGE_CURVE('',#156,#156,#173,.T.);
#141=EDGE_CURVE('',#157,#157,#174,.T.);
#142=VERTEX_POINT('',#444);
#143=VERTEX_POINT('',#446);
#144=VERTEX_POINT('',#449);
#145=VERTEX_POINT('',#452);
#146=VERTEX_POINT('',#455);
#147=VERTEX_POINT('',#458);
#148=VERTEX_POINT('',#461);
#149=VERTEX_POINT('',#464);
#150=VERTEX_POINT('',#469);
#151=VERTEX_POINT('',#471);
#152=VERTEX_POINT('',#474);
#153=VERTEX_POINT('',#477);
#154=VERTEX_POINT('',#480);
#155=VERTEX_POINT('',#483);
#156=VERTEX_POINT('',#486);
#157=VERTEX_POINT('',#489);
#158=VERTEX_POINT('',#493);
#159=CIRCLE('',#299,26.);
#160=CIRCLE('',#300,26.);
#161=CIRCLE('',#302,25.4);
#162=CIRCLE('',#304,19.1);
#163=CIRCLE('',#306,18.5);
#164=CIRCLE('',#308,18.5);
#165=CIRCLE('',#310,19.0500740750902);
#166=CIRCLE('',#312,24.4499259249098);
#167=CIRCLE('',#316,26.);
#168=CIRCLE('',#317,26.);
#169=CIRCLE('',#319,24.4499259249098);
#170=CIRCLE('',#321,19.0500740750902);
#171=CIRCLE('',#323,17.5);
#172=CIRCLE('',#325,17.5);
#173=CIRCLE('',#327,18.1);
#174=CIRCLE('',#329,25.4);
#175=EDGE_LOOP('',(#94));
#176=EDGE_LOOP('',(#95));
#177=EDGE_LOOP('',(#96));
#178=EDGE_LOOP('',(#97));
#179=EDGE_LOOP('',(#98));
#180=EDGE_LOOP('',(#99));
#181=EDGE_LOOP('',(#100));
#182=EDGE_LOOP('',(#101));
#183=EDGE_LOOP('',(#102));
#184=EDGE_LOOP('',(#103));
#185=EDGE_LOOP('',(#104));
#186=EDGE_LOOP('',(#105));
#187=EDGE_LOOP('',(#106));
#188=EDGE_LOOP('',(#107));
#189=EDGE_LOOP('',(#108));
#190=EDGE_LOOP('',(#109));
#191=EDGE_LOOP('',(#110));
#192=EDGE_LOOP('',(#111));
#193=EDGE_LOOP('',(#112));
#194=EDGE_LOOP('',(#113));
#195=EDGE_LOOP('',(#114));
#196=EDGE_LOOP('',(#115));
#197=EDGE_LOOP('',(#116));
#198=EDGE_LOOP('',(#117));
#199=EDGE_LOOP('',(#118));
#200=EDGE_LOOP('',(#119));
#201=EDGE_LOOP('',(#120));
#202=EDGE_LOOP('',(#121));
#203=EDGE_LOOP('',(#122));
#204=EDGE_LOOP('',(#123));
#205=EDGE_LOOP('',(#124));
#206=EDGE_LOOP('',(#125));
#207=FACE_BOUND('',#175,.T.);
#208=FACE_BOUND('',#176,.T.);
#209=FACE_BOUND('',#177,.T.);
#210=FACE_BOUND('',#178,.T.);
#211=FACE_BOUND('',#179,.T.);
#212=FACE_BOUND('',#180,.T.);
#213=FACE_BOUND('',#181,.T.);
#214=FACE_BOUND('',#182,.T.);
#215=FACE_BOUND('',#183,.T.);
#216=FACE_BOUND('',#184,.T.);
#217=FACE_BOUND('',#185,.T.);
#218=FACE_BOUND('',#186,.T.);
#219=FACE_BOUND('',#187,.T.);
#220=FACE_BOUND('',#188,.T.);
#221=FACE_BOUND('',#189,.T.);
#222=FACE_BOUND('',#190,.T.);
#223=FACE_BOUND('',#191,.T.);
#224=FACE_BOUND('',#192,.T.);
#225=FACE_BOUND('',#193,.T.);
#226=FACE_BOUND('',#194,.T.);
#227=FACE_BOUND('',#195,.T.);
#228=FACE_BOUND('',#196,.T.);
#229=FACE_BOUND('',#197,.T.);
#230=FACE_BOUND('',#198,.T.);
#231=FACE_BOUND('',#199,.T.);
#232=FACE_BOUND('',#200,.T.);
#233=FACE_BOUND('',#201,.T.);
#234=FACE_BOUND('',#202,.T.);
#235=FACE_BOUND('',#203,.T.);
#236=FACE_BOUND('',#204,.T.);
#237=FACE_BOUND('',#205,.T.);
#238=FACE_BOUND('',#206,.T.);
#239=FACE_BOUND('',#18,.T.);
#240=CYLINDRICAL_SURFACE('',#298,26.);
#241=CYLINDRICAL_SURFACE('',#307,18.5);
#242=CYLINDRICAL_SURFACE('',#315,26.);
#243=CYLINDRICAL_SURFACE('',#324,17.5);
#244=ADVANCED_FACE('',(#207,#208),#240,.T.);
#245=ADVANCED_FACE('',(#209,#210),#88,.T.);
#246=ADVANCED_FACE('',(#211,#212),#82,.T.);
#247=ADVANCED_FACE('',(#213,#214),#89,.T.);
#248=ADVANCED_FACE('',(#215,#216),#241,.F.);
#249=ADVANCED_FACE('',(#217,#218),#83,.T.);
#250=ADVANCED_FACE('',(#219,#220),#90,.F.);
#251=ADVANCED_FACE('',(#221,#222),#84,.T.);
#252=ADVANCED_FACE('',(#223,#224),#242,.T.);
#253=ADVANCED_FACE('',(#225,#226),#85,.T.);
#254=ADVANCED_FACE('',(#227,#228),#91,.F.);
#255=ADVANCED_FACE('',(#229,#230),#86,.T.);
#256=ADVANCED_FACE('',(#231,#232),#243,.F.);
#257=ADVANCED_FACE('',(#233,#234),#92,.T.);
#258=ADVANCED_FACE('',(#235,#236),#87,.T.);
#259=ADVANCED_FACE('',(#237,#238),#93,.T.);
#260=ADVANCED_FACE('',(#239),#19,.T.);
#261=CLOSED_SHELL('',(#244,#245,#246,#247,#248,#249,#250,#251));
#262=CLOSED_SHELL('',(#252,#253,#254,#255,#256,#257,#258,#259));
#263=CLOSED_SHELL('',(#260));
#264=STYLED_ITEM('',(#267),#286);
#265=STYLED_ITEM('',(#268),#287);
#266=STYLED_ITEM('',(#269),#288);
#267=PRESENTATION_STYLE_ASSIGNMENT((#270));
#268=PRESENTATION_STYLE_ASSIGNMENT((#271));
#269=PRESENTATION_STYLE_ASSIGNMENT((#272));
#270=SURFACE_STYLE_USAGE(.BOTH.,#273);
#271=SURFACE_STYLE_USAGE(.BOTH.,#274);
#272=SURFACE_STYLE_USAGE(.BOTH.,#275);
#273=SURFACE_SIDE_STYLE('',(#276));
#274=SURFACE_SIDE_STYLE('',(#277));
#275=SURFACE_SIDE_STYLE('',(#278));
#276=SURFACE_STYLE_FILL_AREA(#279);
#277=SURFACE_STYLE_FILL_AREA(#280);
#278=SURFACE_STYLE_FILL_AREA(#281);
#279=FILL_AREA_STYLE('',(#282));
#280=FILL_AREA_STYLE('',(#283));
#281=FILL_AREA_STYLE('',(#284));
#282=FILL_AREA_STYLE_COLOUR('',#285);
#283=FILL_AREA_STYLE_COLOUR('',#285);
#284=FILL_AREA_STYLE_COLOUR('',#285);
#285=COLOUR_RGB('',0.689999997615814,0.689999997615814,0.689999997615814);
#286=MANIFOLD_SOLID_BREP('51107 Housing raceway disc',#261);
#287=MANIFOLD_SOLID_BREP('51107 Shaft raceway disc',#262);
#288=MANIFOLD_SOLID_BREP('51107 Ball',#263);
#289=SHAPE_DEFINITION_REPRESENTATION(#518,#293);
#290=SHAPE_DEFINITION_REPRESENTATION(#519,#294);
#291=SHAPE_DEFINITION_REPRESENTATION(#521,#295);
#292=SHAPE_DEFINITION_REPRESENTATION(#523,#296);
#293=SHAPE_REPRESENTATION('51107',(#297,#314,#331,#333,#334,#335,#336,#337,
#338,#339,#340,#341,#342,#343,#344),#507);
#294=SHAPE_REPRESENTATION('51107 Housing raceway disc',(#297),#508);
#295=SHAPE_REPRESENTATION('51107 Shaft raceway disc',(#297),#509);
#296=SHAPE_REPRESENTATION('51107 Ball',(#297),#510);
#297=AXIS2_PLACEMENT_3D('',#441,#345,#346);
#298=AXIS2_PLACEMENT_3D('',#442,#347,#348);
#299=AXIS2_PLACEMENT_3D('',#443,#349,#350);
#300=AXIS2_PLACEMENT_3D('',#445,#351,#352);
#301=AXIS2_PLACEMENT_3D('',#447,#353,#354);
#302=AXIS2_PLACEMENT_3D('',#448,#355,#356);
#303=AXIS2_PLACEMENT_3D('',#450,#357,#358);
#304=AXIS2_PLACEMENT_3D('',#451,#359,#360);
#305=AXIS2_PLACEMENT_3D('',#453,#361,#362);
#306=AXIS2_PLACEMENT_3D('',#454,#363,#364);
#307=AXIS2_PLACEMENT_3D('',#456,#365,#366);
#308=AXIS2_PLACEMENT_3D('',#457,#367,#368);
#309=AXIS2_PLACEMENT_3D('',#459,#369,#370);
#310=AXIS2_PLACEMENT_3D('',#460,#371,#372);
#311=AXIS2_PLACEMENT_3D('',#462,#373,#374);
#312=AXIS2_PLACEMENT_3D('',#463,#375,#376);
#313=AXIS2_PLACEMENT_3D('',#465,#377,#378);
#314=AXIS2_PLACEMENT_3D('',#466,#379,#380);
#315=AXIS2_PLACEMENT_3D('',#467,#381,#382);
#316=AXIS2_PLACEMENT_3D('',#468,#383,#384);
#317=AXIS2_PLACEMENT_3D('',#470,#385,#386);
#318=AXIS2_PLACEMENT_3D('',#472,#387,#388);
#319=AXIS2_PLACEMENT_3D('',#473,#389,#390);
#320=AXIS2_PLACEMENT_3D('',#475,#391,#392);
#321=AXIS2_PLACEMENT_3D('',#476,#393,#394);
#322=AXIS2_PLACEMENT_3D('',#478,#395,#396);
#323=AXIS2_PLACEMENT_3D('',#479,#397,#398);
#324=AXIS2_PLACEMENT_3D('',#481,#399,#400);
#325=AXIS2_PLACEMENT_3D('',#482,#401,#402);
#326=AXIS2_PLACEMENT_3D('',#484,#403,#404);
#327=AXIS2_PLACEMENT_3D('',#485,#405,#406);
#328=AXIS2_PLACEMENT_3D('',#487,#407,#408);
#329=AXIS2_PLACEMENT_3D('',#488,#409,#410);
#330=AXIS2_PLACEMENT_3D('',#490,#411,#412);
#331=AXIS2_PLACEMENT_3D('',#491,#413,#414);
#332=AXIS2_PLACEMENT_3D('',#492,#415,#416);
#333=AXIS2_PLACEMENT_3D('',#494,#417,#418);
#334=AXIS2_PLACEMENT_3D('',#495,#419,#420);
#335=AXIS2_PLACEMENT_3D('',#496,#421,#422);
#336=AXIS2_PLACEMENT_3D('',#497,#423,#424);
#337=AXIS2_PLACEMENT_3D('',#498,#425,#426);
#338=AXIS2_PLACEMENT_3D('',#499,#427,#428);
#339=AXIS2_PLACEMENT_3D('',#500,#429,#430);
#340=AXIS2_PLACEMENT_3D('',#501,#431,#432);
#341=AXIS2_PLACEMENT_3D('',#502,#433,#434);
#342=AXIS2_PLACEMENT_3D('',#503,#435,#436);
#343=AXIS2_PLACEMENT_3D('',#504,#437,#438);
#344=AXIS2_PLACEMENT_3D('',#505,#439,#440);
#345=DIRECTION('',(0.,0.,1.));
#346=DIRECTION('',(1.,0.,0.));
#347=DIRECTION('',(6.12323399573677E-17,1.,0.));
#348=DIRECTION('',(-1.,6.12323399573677E-17,0.));
#349=DIRECTION('',(6.12323399573677E-17,1.,0.));
#350=DIRECTION('',(-1.,6.12323399573677E-17,0.));
#351=DIRECTION('',(6.12323399573677E-17,1.,0.));
#352=DIRECTION('',(-1.,6.12323399573677E-17,0.));
#353=DIRECTION('',(6.12323399573677E-17,1.,0.));
#354=DIRECTION('',(-1.,6.12323399573677E-17,0.));
#355=DIRECTION('',(6.12323399573677E-17,1.,0.));
#356=DIRECTION('',(-1.,6.12323399573677E-17,0.));
#357=DIRECTION('',(-6.12323399573677E-17,-1.,0.));
#358=DIRECTION('',(1.,-6.12323399573677E-17,0.));
#359=DIRECTION('',(6.12323399573677E-17,1.,0.));
#360=DIRECTION('',(-1.,6.12323399573677E-17,0.));
#361=DIRECTION('',(6.12323399573677E-17,1.,0.));
#362=DIRECTION('',(-1.,6.12323399573677E-17,0.));
#363=DIRECTION('',(6.12323399573677E-17,1.,0.));
#364=DIRECTION('',(-1.,6.12323399573677E-17,0.));
#365=DIRECTION('',(6.12323399573677E-17,1.,0.));
#366=DIRECTION('',(-1.,6.12323399573677E-17,0.));
#367=DIRECTION('',(6.12323399573677E-17,1.,0.));
#368=DIRECTION('',(-1.,6.12323399573677E-17,0.));
#369=DIRECTION('',(6.12323399573677E-17,1.,0.));
#370=DIRECTION('',(-1.,6.12323399573677E-17,0.));
#371=DIRECTION('',(6.12323399573677E-17,1.,0.));
#372=DIRECTION('',(-1.,6.12323399573677E-17,0.));
#373=DIRECTION('',(6.12323399573677E-17,1.,0.));
#374=DIRECTION('',(-1.,6.12323399573677E-17,0.));
#375=DIRECTION('',(6.12323399573677E-17,1.,0.));
#376=DIRECTION('',(-1.,6.12323399573677E-17,0.));
#377=DIRECTION('',(6.12323399573677E-17,1.,0.));
#378=DIRECTION('',(-1.,6.12323399573677E-17,0.));
#379=DIRECTION('',(0.,0.,1.));
#380=DIRECTION('',(1.,0.,0.));
#381=DIRECTION('',(6.12323399573677E-17,1.,0.));
#382=DIRECTION('',(-1.,6.12323399573677E-17,0.));
#383=DIRECTION('',(6.12323399573677E-17,1.,0.));
#384=DIRECTION('',(-1.,6.12323399573677E-17,0.));
#385=DIRECTION('',(6.12323399573677E-17,1.,0.));
#386=DIRECTION('',(-1.,6.12323399573677E-17,0.));
#387=DIRECTION('',(-6.12323399573677E-17,-1.,0.));
#388=DIRECTION('',(1.,-6.12323399573677E-17,0.));
#389=DIRECTION('',(6.12323399573677E-17,1.,0.));
#390=DIRECTION('',(-1.,6.12323399573677E-17,0.));
#391=DIRECTION('',(6.12323399573677E-17,1.,0.));
#392=DIRECTION('',(-1.,6.12323399573677E-17,0.));
#393=DIRECTION('',(6.12323399573677E-17,1.,0.));
#394=DIRECTION('',(-1.,6.12323399573677E-17,0.));
#395=DIRECTION('',(-6.12323399573677E-17,-1.,0.));
#396=DIRECTION('',(1.,-6.12323399573677E-17,0.));
#397=DIRECTION('',(6.12323399573677E-17,1.,0.));
#398=DIRECTION('',(-1.,6.12323399573677E-17,0.));
#399=DIRECTION('',(6.12323399573677E-17,1.,0.));
#400=DIRECTION('',(-1.,6.12323399573677E-17,0.));
#401=DIRECTION('',(6.12323399573677E-17,1.,0.));
#402=DIRECTION('',(-1.,6.12323399573677E-17,0.));
#403=DIRECTION('',(6.12323399573677E-17,1.,0.));
#404=DIRECTION('',(-1.,6.12323399573677E-17,0.));
#405=DIRECTION('',(6.12323399573677E-17,1.,0.));
#406=DIRECTION('',(-1.,6.12323399573677E-17,0.));
#407=DIRECTION('',(6.12323399573677E-17,1.,0.));
#408=DIRECTION('',(-1.,6.12323399573677E-17,0.));
#409=DIRECTION('',(6.12323399573677E-17,1.,0.));
#410=DIRECTION('',(-1.,6.12323399573677E-17,0.));
#411=DIRECTION('',(6.12323399573677E-17,1.,0.));
#412=DIRECTION('',(-1.,6.12323399573677E-17,0.));
#413=DIRECTION('',(1.,0.,0.));
#414=DIRECTION('',(0.,0.,-1.));
#415=DIRECTION('',(1.,0.,0.));
#416=DIRECTION('',(0.,-1.,0.));
#417=DIRECTION('',(0.,0.,1.));
#418=DIRECTION('',(0.,-1.,0.));
#419=DIRECTION('',(0.,0.,1.));
#420=DIRECTION('',(0.,-1.,0.));
#421=DIRECTION('',(0.,0.,1.));
#422=DIRECTION('',(0.,-1.,0.));
#423=DIRECTION('',(0.,0.,1.));
#424=DIRECTION('',(0.,-1.,0.));
#425=DIRECTION('',(0.,0.,1.));
#426=DIRECTION('',(0.,-1.,0.));
#427=DIRECTION('',(0.,0.,1.));
#428=DIRECTION('',(0.,-1.,0.));
#429=DIRECTION('',(0.,0.,1.));
#430=DIRECTION('',(0.,-1.,0.));
#431=DIRECTION('',(0.,0.,1.));
#432=DIRECTION('',(0.,-1.,0.));
#433=DIRECTION('',(0.,0.,1.));
#434=DIRECTION('',(0.,-1.,0.));
#435=DIRECTION('',(0.,0.,1.));
#436=DIRECTION('',(0.,-1.,0.));
#437=DIRECTION('',(0.,0.,1.));
#438=DIRECTION('',(0.,-1.,0.));
#439=DIRECTION('',(0.,0.,1.));
#440=DIRECTION('',(0.,-1.,0.));
#441=CARTESIAN_POINT('',(0.,0.,0.));
#442=CARTESIAN_POINT('',(2.44929359829471E-16,4.,0.));
#443=CARTESIAN_POINT('',(3.67394039744206E-17,0.6,0.));
#444=CARTESIAN_POINT('',(-26.,0.600000000000002,0.));
#445=CARTESIAN_POINT('',(2.44929359829471E-16,4.,0.));
#446=CARTESIAN_POINT('',(-26.,4.,0.));
#447=CARTESIAN_POINT('',(0.,0.600000000000004,0.));
#448=CARTESIAN_POINT('',(4.81482486096809E-32,8.67361737988404E-16,0.));
#449=CARTESIAN_POINT('',(-25.4,2.42266317290554E-15,0.));
#450=CARTESIAN_POINT('',(-25.4,1.97027310719262E-15,0.));
#451=CARTESIAN_POINT('',(0.,0.,0.));
#452=CARTESIAN_POINT('',(-19.1,1.16953769318572E-15,0.));
#453=CARTESIAN_POINT('',(0.,0.600000000000004,0.));
#454=CARTESIAN_POINT('',(3.67394039744206E-17,0.6,0.));
#455=CARTESIAN_POINT('',(-18.5,0.600000000000001,0.));
#456=CARTESIAN_POINT('',(2.44929359829471E-16,4.,0.));
#457=CARTESIAN_POINT('',(2.44929359829471E-16,4.,0.));
#458=CARTESIAN_POINT('',(-18.5,4.,0.));
#459=CARTESIAN_POINT('',(-18.5,4.,0.));
#460=CARTESIAN_POINT('',(2.44929359829471E-16,4.,0.));
#461=CARTESIAN_POINT('',(-19.0500740750902,4.,0.));
#462=CARTESIAN_POINT('',(0.,6.,0.));
#463=CARTESIAN_POINT('',(2.44929359829471E-16,4.,0.));
#464=CARTESIAN_POINT('',(-24.4499259249098,4.,0.));
#465=CARTESIAN_POINT('',(-24.4499259249098,4.,0.));
#466=CARTESIAN_POINT('',(0.,0.,0.));
#467=CARTESIAN_POINT('',(7.34788079488412E-16,12.,0.));
#468=CARTESIAN_POINT('',(4.89858719658941E-16,8.,0.));
#469=CARTESIAN_POINT('',(-26.,8.,0.));
#470=CARTESIAN_POINT('',(6.98048675513991E-16,11.4,0.));
#471=CARTESIAN_POINT('',(-26.,11.4,0.));
#472=CARTESIAN_POINT('',(-26.,8.,0.));
#473=CARTESIAN_POINT('',(4.89858719658941E-16,8.,0.));
#474=CARTESIAN_POINT('',(-24.4499259249098,8.,0.));
#475=CARTESIAN_POINT('',(0.,6.,0.));
#476=CARTESIAN_POINT('',(4.89858719658941E-16,8.,0.));
#477=CARTESIAN_POINT('',(-19.0500740750902,8.00000000000001,0.));
#478=CARTESIAN_POINT('',(-19.0500740750902,8.,0.));
#479=CARTESIAN_POINT('',(4.89858719658941E-16,8.,0.));
#480=CARTESIAN_POINT('',(-17.5,8.,0.));
#481=CARTESIAN_POINT('',(7.34788079488412E-16,12.,0.));
#482=CARTESIAN_POINT('',(6.98048675513991E-16,11.4,0.));
#483=CARTESIAN_POINT('',(-17.5,11.4,0.));
#484=CARTESIAN_POINT('',(0.,11.4,0.));
#485=CARTESIAN_POINT('',(7.34788079488412E-16,12.,0.));
#486=CARTESIAN_POINT('',(-18.1,12.,0.));
#487=CARTESIAN_POINT('',(-18.1,12.,0.));
#488=CARTESIAN_POINT('',(7.34788079488412E-16,12.,0.));
#489=CARTESIAN_POINT('',(-25.4,12.,0.));
#490=CARTESIAN_POINT('',(0.,11.4,0.));
#491=CARTESIAN_POINT('',(0.,0.,0.));
#492=CARTESIAN_POINT('',(-2.16840434497101E-16,4.33680868994202E-16,0.));
#493=CARTESIAN_POINT('',(-3.36,2.27940206737446E-16,0.));
#494=CARTESIAN_POINT('',(-21.75,6.,0.));
#495=CARTESIAN_POINT('',(-18.8360525323115,6.,10.875));
#496=CARTESIAN_POINT('',(-10.875,6.,18.8360525323115));
#497=CARTESIAN_POINT('',(-5.32907051820075E-15,6.,21.75));
#498=CARTESIAN_POINT('',(10.875,6.,18.8360525323115));
#499=CARTESIAN_POINT('',(18.8360525323115,6.,10.875));
#500=CARTESIAN_POINT('',(21.75,6.,1.24344978758018E-14));
#501=CARTESIAN_POINT('',(18.8360525323115,6.,-10.875));
#502=CARTESIAN_POINT('',(10.875,6.,-18.8360525323115));
#503=CARTESIAN_POINT('',(1.77635683940025E-14,6.,-21.75));
#504=CARTESIAN_POINT('',(-10.875,6.,-18.8360525323116));
#505=CARTESIAN_POINT('',(-18.8360525323115,6.,-10.875));
#506=MECHANICAL_DESIGN_GEOMETRIC_PRESENTATION_REPRESENTATION('',(#264,#265,
#266),#507);
#507=(
GEOMETRIC_REPRESENTATION_CONTEXT(3)
GLOBAL_UNCERTAINTY_ASSIGNED_CONTEXT((#511))
GLOBAL_UNIT_ASSIGNED_CONTEXT((#517,#516,#515))
REPRESENTATION_CONTEXT('51107','TOP_LEVEL_ASSEMBLY_PART')
);
#508=(
GEOMETRIC_REPRESENTATION_CONTEXT(3)
GLOBAL_UNCERTAINTY_ASSIGNED_CONTEXT((#512))
GLOBAL_UNIT_ASSIGNED_CONTEXT((#517,#516,#515))
REPRESENTATION_CONTEXT('51107 Housing raceway disc','COMPONENT_PART')
);
#509=(
GEOMETRIC_REPRESENTATION_CONTEXT(3)
GLOBAL_UNCERTAINTY_ASSIGNED_CONTEXT((#513))
GLOBAL_UNIT_ASSIGNED_CONTEXT((#517,#516,#515))
REPRESENTATION_CONTEXT('51107 Shaft raceway disc','COMPONENT_PART')
);
#510=(
GEOMETRIC_REPRESENTATION_CONTEXT(3)
GLOBAL_UNCERTAINTY_ASSIGNED_CONTEXT((#514))
GLOBAL_UNIT_ASSIGNED_CONTEXT((#517,#516,#515))
REPRESENTATION_CONTEXT('51107 Ball','COMPONENT_PART')
);
#511=UNCERTAINTY_MEASURE_WITH_UNIT(LENGTH_MEASURE(0.005),#517,
'DISTANCE_ACCURACY_VALUE','Maximum Tolerance applied to model');
#512=UNCERTAINTY_MEASURE_WITH_UNIT(LENGTH_MEASURE(0.005),#517,
'DISTANCE_ACCURACY_VALUE','Maximum Tolerance applied to model');
#513=UNCERTAINTY_MEASURE_WITH_UNIT(LENGTH_MEASURE(0.005),#517,
'DISTANCE_ACCURACY_VALUE','Maximum Tolerance applied to model');
#514=UNCERTAINTY_MEASURE_WITH_UNIT(LENGTH_MEASURE(0.005),#517,
'DISTANCE_ACCURACY_VALUE','Maximum Tolerance applied to model');
#515=(
NAMED_UNIT(*)
SI_UNIT($,.STERADIAN.)
SOLID_ANGLE_UNIT()
);
#516=(
NAMED_UNIT(*)
PLANE_ANGLE_UNIT()
SI_UNIT($,.RADIAN.)
);
#517=(
LENGTH_UNIT()
NAMED_UNIT(*)
SI_UNIT(.MILLI.,.METRE.)
);
#518=PRODUCT_DEFINITION_SHAPE('','',#536);
#519=PRODUCT_DEFINITION_SHAPE('','',#537);
#520=PRODUCT_DEFINITION_SHAPE(' ','NAUO PRDDFN',#34);
#521=PRODUCT_DEFINITION_SHAPE('','',#538);
#522=PRODUCT_DEFINITION_SHAPE(' ','NAUO PRDDFN',#35);
#523=PRODUCT_DEFINITION_SHAPE('','',#539);
#524=PRODUCT_DEFINITION_SHAPE(' ','NAUO PRDDFN',#36);
#525=PRODUCT_DEFINITION_SHAPE(' ','NAUO PRDDFN',#37);
#526=PRODUCT_DEFINITION_SHAPE(' ','NAUO PRDDFN',#38);
#527=PRODUCT_DEFINITION_SHAPE(' ','NAUO PRDDFN',#39);
#528=PRODUCT_DEFINITION_SHAPE(' ','NAUO PRDDFN',#40);
#529=PRODUCT_DEFINITION_SHAPE(' ','NAUO PRDDFN',#41);
#530=PRODUCT_DEFINITION_SHAPE(' ','NAUO PRDDFN',#42);
#531=PRODUCT_DEFINITION_SHAPE(' ','NAUO PRDDFN',#43);
#532=PRODUCT_DEFINITION_SHAPE(' ','NAUO PRDDFN',#44);
#533=PRODUCT_DEFINITION_SHAPE(' ','NAUO PRDDFN',#45);
#534=PRODUCT_DEFINITION_SHAPE(' ','NAUO PRDDFN',#46);
#535=PRODUCT_DEFINITION_SHAPE(' ','NAUO PRDDFN',#47);
#536=PRODUCT_DEFINITION('','',#544,#540);
#537=PRODUCT_DEFINITION('','',#545,#541);
#538=PRODUCT_DEFINITION('','',#546,#542);
#539=PRODUCT_DEFINITION('','',#547,#543);
#540=PRODUCT_DEFINITION_CONTEXT('',#565,'design');
#541=PRODUCT_DEFINITION_CONTEXT('',#565,'design');
#542=PRODUCT_DEFINITION_CONTEXT('',#565,'design');
#543=PRODUCT_DEFINITION_CONTEXT('',#565,'design');
#544=PRODUCT_DEFINITION_FORMATION_WITH_SPECIFIED_SOURCE('','',#552,
 .NOT_KNOWN.);
#545=PRODUCT_DEFINITION_FORMATION_WITH_SPECIFIED_SOURCE('','',#553,
 .NOT_KNOWN.);
#546=PRODUCT_DEFINITION_FORMATION_WITH_SPECIFIED_SOURCE('','',#554,
 .NOT_KNOWN.);
#547=PRODUCT_DEFINITION_FORMATION_WITH_SPECIFIED_SOURCE('','',#555,
 .NOT_KNOWN.);
#548=PRODUCT_RELATED_PRODUCT_CATEGORY('','',(#552));
#549=PRODUCT_RELATED_PRODUCT_CATEGORY('','',(#553));
#550=PRODUCT_RELATED_PRODUCT_CATEGORY('','',(#554));
#551=PRODUCT_RELATED_PRODUCT_CATEGORY('','',(#555));
#552=PRODUCT('51107','51107','51107',(#560));
#553=PRODUCT('51107 Housing raceway disc','51107 Housing raceway disc',
'51107 Housing raceway disc',(#561));
#554=PRODUCT('51107 Shaft raceway disc','51107 Shaft raceway disc',
'51107 Shaft raceway disc',(#562));
#555=PRODUCT('51107 Ball','51107 Ball','51107 Ball',(#563));
#556=PRODUCT_CATEGORY('','');
#557=PRODUCT_CATEGORY('','');
#558=PRODUCT_CATEGORY('','');
#559=PRODUCT_CATEGORY('','');
#560=PRODUCT_CONTEXT('',#565,'mechanical');
#561=PRODUCT_CONTEXT('',#565,'mechanical');
#562=PRODUCT_CONTEXT('',#565,'mechanical');
#563=PRODUCT_CONTEXT('',#565,'mechanical');
#564=APPLICATION_PROTOCOL_DEFINITION('international standard',
'automotive_design',2010,#565);
#565=APPLICATION_CONTEXT(
'core data for automotive mechanical design processes');
ENDSEC;
END-ISO-10303-21;
