ISO-10303-21;
HEADER;
/* Generated by software containing ST-Developer
 * from STEP Tools, Inc. (www.steptools.com) 
 */
/* OPTION: using custom renumber hook */

FILE_DESCRIPTION(
/* description */ ('STEP AP214'),
/* implementation_level */ '2;1');

FILE_NAME(
/* name */ '51316',
/* time_stamp */ '2025-09-17T13:33:03+02:00',
/* author */ ('License CC BY-ND 4.0'),
/* organization */ ('CADENAS'),
/* preprocessor_version */ 'ST-DEVELOPER v19.3',
/* originating_system */ 'PARTsolutions',
/* authorisation */ '  ');

FILE_SCHEMA (('AUTOMOTIVE_DESIGN {1 0 10303 214 3 1 1}'));
ENDSEC;

DATA;
#10=PROPERTY_DEFINITION_REPRESENTATION(#14,#12);
#11=PROPERTY_DEFINITION_REPRESENTATION(#15,#13);
#12=REPRESENTATION('',(#16),#475);
#13=REPRESENTATION('',(#17),#475);
#14=PROPERTY_DEFINITION('pmi validation property','',#486);
#15=PROPERTY_DEFINITION('pmi validation property','',#486);
#16=VALUE_REPRESENTATION_ITEM('number of annotations',COUNT_MEASURE(0.));
#17=VALUE_REPRESENTATION_ITEM('number of views',COUNT_MEASURE(0.));
#18=VERTEX_LOOP('',#142);
#19=SPHERICAL_SURFACE('',#316,12.32);
#20=CONTEXT_DEPENDENT_SHAPE_REPRESENTATION(#40,#488);
#21=CONTEXT_DEPENDENT_SHAPE_REPRESENTATION(#41,#490);
#22=CONTEXT_DEPENDENT_SHAPE_REPRESENTATION(#42,#492);
#23=CONTEXT_DEPENDENT_SHAPE_REPRESENTATION(#43,#493);
#24=CONTEXT_DEPENDENT_SHAPE_REPRESENTATION(#44,#494);
#25=CONTEXT_DEPENDENT_SHAPE_REPRESENTATION(#45,#495);
#26=CONTEXT_DEPENDENT_SHAPE_REPRESENTATION(#46,#496);
#27=CONTEXT_DEPENDENT_SHAPE_REPRESENTATION(#47,#497);
#28=CONTEXT_DEPENDENT_SHAPE_REPRESENTATION(#48,#498);
#29=CONTEXT_DEPENDENT_SHAPE_REPRESENTATION(#49,#499);
#30=NEXT_ASSEMBLY_USAGE_OCCURRENCE('NAUO1','51316 Housing raceway disc',
'51316 Housing raceway disc',#500,#501,'');
#31=NEXT_ASSEMBLY_USAGE_OCCURRENCE('NAUO2','51316 Shaft raceway disc',
'51316 Shaft raceway disc',#500,#502,'');
#32=NEXT_ASSEMBLY_USAGE_OCCURRENCE('NAUO3','51316 Ball','51316 Ball',#500,
#503,'');
#33=NEXT_ASSEMBLY_USAGE_OCCURRENCE('NAUO4','51316 Ball','51316 Ball',#500,
#503,'');
#34=NEXT_ASSEMBLY_USAGE_OCCURRENCE('NAUO5','51316 Ball','51316 Ball',#500,
#503,'');
#35=NEXT_ASSEMBLY_USAGE_OCCURRENCE('NAUO6','51316 Ball','51316 Ball',#500,
#503,'');
#36=NEXT_ASSEMBLY_USAGE_OCCURRENCE('NAUO7','51316 Ball','51316 Ball',#500,
#503,'');
#37=NEXT_ASSEMBLY_USAGE_OCCURRENCE('NAUO8','51316 Ball','51316 Ball',#500,
#503,'');
#38=NEXT_ASSEMBLY_USAGE_OCCURRENCE('NAUO9','51316 Ball','51316 Ball',#500,
#503,'');
#39=NEXT_ASSEMBLY_USAGE_OCCURRENCE('NAUO10','51316 Ball','51316 Ball',#500,
#503,'');
#40=(
REPRESENTATION_RELATIONSHIP(' ',' ',#278,#277)
REPRESENTATION_RELATIONSHIP_WITH_TRANSFORMATION(#50)
SHAPE_REPRESENTATION_RELATIONSHIP()
);
#41=(
REPRESENTATION_RELATIONSHIP(' ',' ',#279,#277)
REPRESENTATION_RELATIONSHIP_WITH_TRANSFORMATION(#51)
SHAPE_REPRESENTATION_RELATIONSHIP()
);
#42=(
REPRESENTATION_RELATIONSHIP(' ',' ',#280,#277)
REPRESENTATION_RELATIONSHIP_WITH_TRANSFORMATION(#52)
SHAPE_REPRESENTATION_RELATIONSHIP()
);
#43=(
REPRESENTATION_RELATIONSHIP(' ',' ',#280,#277)
REPRESENTATION_RELATIONSHIP_WITH_TRANSFORMATION(#53)
SHAPE_REPRESENTATION_RELATIONSHIP()
);
#44=(
REPRESENTATION_RELATIONSHIP(' ',' ',#280,#277)
REPRESENTATION_RELATIONSHIP_WITH_TRANSFORMATION(#54)
SHAPE_REPRESENTATION_RELATIONSHIP()
);
#45=(
REPRESENTATION_RELATIONSHIP(' ',' ',#280,#277)
REPRESENTATION_RELATIONSHIP_WITH_TRANSFORMATION(#55)
SHAPE_REPRESENTATION_RELATIONSHIP()
);
#46=(
REPRESENTATION_RELATIONSHIP(' ',' ',#280,#277)
REPRESENTATION_RELATIONSHIP_WITH_TRANSFORMATION(#56)
SHAPE_REPRESENTATION_RELATIONSHIP()
);
#47=(
REPRESENTATION_RELATIONSHIP(' ',' ',#280,#277)
REPRESENTATION_RELATIONSHIP_WITH_TRANSFORMATION(#57)
SHAPE_REPRESENTATION_RELATIONSHIP()
);
#48=(
REPRESENTATION_RELATIONSHIP(' ',' ',#280,#277)
REPRESENTATION_RELATIONSHIP_WITH_TRANSFORMATION(#58)
SHAPE_REPRESENTATION_RELATIONSHIP()
);
#49=(
REPRESENTATION_RELATIONSHIP(' ',' ',#280,#277)
REPRESENTATION_RELATIONSHIP_WITH_TRANSFORMATION(#59)
SHAPE_REPRESENTATION_RELATIONSHIP()
);
#50=ITEM_DEFINED_TRANSFORMATION(' ',' ',#281,#298);
#51=ITEM_DEFINED_TRANSFORMATION(' ',' ',#281,#315);
#52=ITEM_DEFINED_TRANSFORMATION(' ',' ',#281,#317);
#53=ITEM_DEFINED_TRANSFORMATION(' ',' ',#281,#318);
#54=ITEM_DEFINED_TRANSFORMATION(' ',' ',#281,#319);
#55=ITEM_DEFINED_TRANSFORMATION(' ',' ',#281,#320);
#56=ITEM_DEFINED_TRANSFORMATION(' ',' ',#281,#321);
#57=ITEM_DEFINED_TRANSFORMATION(' ',' ',#281,#322);
#58=ITEM_DEFINED_TRANSFORMATION(' ',' ',#281,#323);
#59=ITEM_DEFINED_TRANSFORMATION(' ',' ',#281,#324);
#60=SHAPE_REPRESENTATION_RELATIONSHIP('','',#278,#63);
#61=SHAPE_REPRESENTATION_RELATIONSHIP('','',#279,#64);
#62=SHAPE_REPRESENTATION_RELATIONSHIP('','',#280,#65);
#63=ADVANCED_BREP_SHAPE_REPRESENTATION('',(#270),#476);
#64=ADVANCED_BREP_SHAPE_REPRESENTATION('',(#271),#477);
#65=ADVANCED_BREP_SHAPE_REPRESENTATION('',(#272),#478);
#66=PLANE('',#287);
#67=PLANE('',#293);
#68=PLANE('',#297);
#69=PLANE('',#302);
#70=PLANE('',#306);
#71=PLANE('',#312);
#72=TOROIDAL_SURFACE('',#285,68.5,1.50000000000003);
#73=TOROIDAL_SURFACE('',#289,42.5,1.49999999999999);
#74=TOROIDAL_SURFACE('',#295,55.,12.32);
#75=TOROIDAL_SURFACE('',#304,55.,12.32);
#76=TOROIDAL_SURFACE('',#310,41.5,1.5);
#77=TOROIDAL_SURFACE('',#314,68.5,1.50000000000002);
#78=ORIENTED_EDGE('',*,*,#110,.T.);
#79=ORIENTED_EDGE('',*,*,#111,.F.);
#80=ORIENTED_EDGE('',*,*,#112,.T.);
#81=ORIENTED_EDGE('',*,*,#110,.F.);
#82=ORIENTED_EDGE('',*,*,#113,.T.);
#83=ORIENTED_EDGE('',*,*,#112,.F.);
#84=ORIENTED_EDGE('',*,*,#114,.T.);
#85=ORIENTED_EDGE('',*,*,#113,.F.);
#86=ORIENTED_EDGE('',*,*,#115,.T.);
#87=ORIENTED_EDGE('',*,*,#114,.F.);
#88=ORIENTED_EDGE('',*,*,#116,.T.);
#89=ORIENTED_EDGE('',*,*,#115,.F.);
#90=ORIENTED_EDGE('',*,*,#116,.F.);
#91=ORIENTED_EDGE('',*,*,#117,.T.);
#92=ORIENTED_EDGE('',*,*,#111,.T.);
#93=ORIENTED_EDGE('',*,*,#117,.F.);
#94=ORIENTED_EDGE('',*,*,#118,.T.);
#95=ORIENTED_EDGE('',*,*,#119,.F.);
#96=ORIENTED_EDGE('',*,*,#120,.T.);
#97=ORIENTED_EDGE('',*,*,#118,.F.);
#98=ORIENTED_EDGE('',*,*,#120,.F.);
#99=ORIENTED_EDGE('',*,*,#121,.T.);
#100=ORIENTED_EDGE('',*,*,#122,.T.);
#101=ORIENTED_EDGE('',*,*,#121,.F.);
#102=ORIENTED_EDGE('',*,*,#123,.T.);
#103=ORIENTED_EDGE('',*,*,#122,.F.);
#104=ORIENTED_EDGE('',*,*,#124,.T.);
#105=ORIENTED_EDGE('',*,*,#123,.F.);
#106=ORIENTED_EDGE('',*,*,#125,.T.);
#107=ORIENTED_EDGE('',*,*,#124,.F.);
#108=ORIENTED_EDGE('',*,*,#119,.T.);
#109=ORIENTED_EDGE('',*,*,#125,.F.);
#110=EDGE_CURVE('',#126,#126,#143,.T.);
#111=EDGE_CURVE('',#127,#127,#144,.T.);
#112=EDGE_CURVE('',#128,#128,#145,.T.);
#113=EDGE_CURVE('',#129,#129,#146,.T.);
#114=EDGE_CURVE('',#130,#130,#147,.T.);
#115=EDGE_CURVE('',#131,#131,#148,.T.);
#116=EDGE_CURVE('',#132,#132,#149,.T.);
#117=EDGE_CURVE('',#133,#133,#150,.T.);
#118=EDGE_CURVE('',#134,#134,#151,.T.);
#119=EDGE_CURVE('',#135,#135,#152,.T.);
#120=EDGE_CURVE('',#136,#136,#153,.T.);
#121=EDGE_CURVE('',#137,#137,#154,.T.);
#122=EDGE_CURVE('',#138,#138,#155,.T.);
#123=EDGE_CURVE('',#139,#139,#156,.T.);
#124=EDGE_CURVE('',#140,#140,#157,.T.);
#125=EDGE_CURVE('',#141,#141,#158,.T.);
#126=VERTEX_POINT('',#416);
#127=VERTEX_POINT('',#418);
#128=VERTEX_POINT('',#421);
#129=VERTEX_POINT('',#424);
#130=VERTEX_POINT('',#427);
#131=VERTEX_POINT('',#430);
#132=VERTEX_POINT('',#433);
#133=VERTEX_POINT('',#436);
#134=VERTEX_POINT('',#441);
#135=VERTEX_POINT('',#443);
#136=VERTEX_POINT('',#446);
#137=VERTEX_POINT('',#449);
#138=VERTEX_POINT('',#452);
#139=VERTEX_POINT('',#455);
#140=VERTEX_POINT('',#458);
#141=VERTEX_POINT('',#461);
#142=VERTEX_POINT('',#465);
#143=CIRCLE('',#283,70.);
#144=CIRCLE('',#284,70.);
#145=CIRCLE('',#286,68.5);
#146=CIRCLE('',#288,42.5);
#147=CIRCLE('',#290,41.);
#148=CIRCLE('',#292,41.);
#149=CIRCLE('',#294,45.1002691394614);
#150=CIRCLE('',#296,64.8997308605386);
#151=CIRCLE('',#300,70.);
#152=CIRCLE('',#301,70.);
#153=CIRCLE('',#303,64.8997308605386);
#154=CIRCLE('',#305,45.1002691394614);
#155=CIRCLE('',#307,40.);
#156=CIRCLE('',#309,40.);
#157=CIRCLE('',#311,41.5);
#158=CIRCLE('',#313,68.5);
#159=EDGE_LOOP('',(#78));
#160=EDGE_LOOP('',(#79));
#161=EDGE_LOOP('',(#80));
#162=EDGE_LOOP('',(#81));
#163=EDGE_LOOP('',(#82));
#164=EDGE_LOOP('',(#83));
#165=EDGE_LOOP('',(#84));
#166=EDGE_LOOP('',(#85));
#167=EDGE_LOOP('',(#86));
#168=EDGE_LOOP('',(#87));
#169=EDGE_LOOP('',(#88));
#170=EDGE_LOOP('',(#89));
#171=EDGE_LOOP('',(#90));
#172=EDGE_LOOP('',(#91));
#173=EDGE_LOOP('',(#92));
#174=EDGE_LOOP('',(#93));
#175=EDGE_LOOP('',(#94));
#176=EDGE_LOOP('',(#95));
#177=EDGE_LOOP('',(#96));
#178=EDGE_LOOP('',(#97));
#179=EDGE_LOOP('',(#98));
#180=EDGE_LOOP('',(#99));
#181=EDGE_LOOP('',(#100));
#182=EDGE_LOOP('',(#101));
#183=EDGE_LOOP('',(#102));
#184=EDGE_LOOP('',(#103));
#185=EDGE_LOOP('',(#104));
#186=EDGE_LOOP('',(#105));
#187=EDGE_LOOP('',(#106));
#188=EDGE_LOOP('',(#107));
#189=EDGE_LOOP('',(#108));
#190=EDGE_LOOP('',(#109));
#191=FACE_BOUND('',#159,.T.);
#192=FACE_BOUND('',#160,.T.);
#193=FACE_BOUND('',#161,.T.);
#194=FACE_BOUND('',#162,.T.);
#195=FACE_BOUND('',#163,.T.);
#196=FACE_BOUND('',#164,.T.);
#197=FACE_BOUND('',#165,.T.);
#198=FACE_BOUND('',#166,.T.);
#199=FACE_BOUND('',#167,.T.);
#200=FACE_BOUND('',#168,.T.);
#201=FACE_BOUND('',#169,.T.);
#202=FACE_BOUND('',#170,.T.);
#203=FACE_BOUND('',#171,.T.);
#204=FACE_BOUND('',#172,.T.);
#205=FACE_BOUND('',#173,.T.);
#206=FACE_BOUND('',#174,.T.);
#207=FACE_BOUND('',#175,.T.);
#208=FACE_BOUND('',#176,.T.);
#209=FACE_BOUND('',#177,.T.);
#210=FACE_BOUND('',#178,.T.);
#211=FACE_BOUND('',#179,.T.);
#212=FACE_BOUND('',#180,.T.);
#213=FACE_BOUND('',#181,.T.);
#214=FACE_BOUND('',#182,.T.);
#215=FACE_BOUND('',#183,.T.);
#216=FACE_BOUND('',#184,.T.);
#217=FACE_BOUND('',#185,.T.);
#218=FACE_BOUND('',#186,.T.);
#219=FACE_BOUND('',#187,.T.);
#220=FACE_BOUND('',#188,.T.);
#221=FACE_BOUND('',#189,.T.);
#222=FACE_BOUND('',#190,.T.);
#223=FACE_BOUND('',#18,.T.);
#224=CYLINDRICAL_SURFACE('',#282,70.);
#225=CYLINDRICAL_SURFACE('',#291,41.);
#226=CYLINDRICAL_SURFACE('',#299,70.);
#227=CYLINDRICAL_SURFACE('',#308,40.);
#228=ADVANCED_FACE('',(#191,#192),#224,.T.);
#229=ADVANCED_FACE('',(#193,#194),#72,.T.);
#230=ADVANCED_FACE('',(#195,#196),#66,.T.);
#231=ADVANCED_FACE('',(#197,#198),#73,.T.);
#232=ADVANCED_FACE('',(#199,#200),#225,.F.);
#233=ADVANCED_FACE('',(#201,#202),#67,.T.);
#234=ADVANCED_FACE('',(#203,#204),#74,.F.);
#235=ADVANCED_FACE('',(#205,#206),#68,.T.);
#236=ADVANCED_FACE('',(#207,#208),#226,.T.);
#237=ADVANCED_FACE('',(#209,#210),#69,.T.);
#238=ADVANCED_FACE('',(#211,#212),#75,.F.);
#239=ADVANCED_FACE('',(#213,#214),#70,.T.);
#240=ADVANCED_FACE('',(#215,#216),#227,.F.);
#241=ADVANCED_FACE('',(#217,#218),#76,.T.);
#242=ADVANCED_FACE('',(#219,#220),#71,.T.);
#243=ADVANCED_FACE('',(#221,#222),#77,.T.);
#244=ADVANCED_FACE('',(#223),#19,.T.);
#245=CLOSED_SHELL('',(#228,#229,#230,#231,#232,#233,#234,#235));
#246=CLOSED_SHELL('',(#236,#237,#238,#239,#240,#241,#242,#243));
#247=CLOSED_SHELL('',(#244));
#248=STYLED_ITEM('',(#251),#270);
#249=STYLED_ITEM('',(#252),#271);
#250=STYLED_ITEM('',(#253),#272);
#251=PRESENTATION_STYLE_ASSIGNMENT((#254));
#252=PRESENTATION_STYLE_ASSIGNMENT((#255));
#253=PRESENTATION_STYLE_ASSIGNMENT((#256));
#254=SURFACE_STYLE_USAGE(.BOTH.,#257);
#255=SURFACE_STYLE_USAGE(.BOTH.,#258);
#256=SURFACE_STYLE_USAGE(.BOTH.,#259);
#257=SURFACE_SIDE_STYLE('',(#260));
#258=SURFACE_SIDE_STYLE('',(#261));
#259=SURFACE_SIDE_STYLE('',(#262));
#260=SURFACE_STYLE_FILL_AREA(#263);
#261=SURFACE_STYLE_FILL_AREA(#264);
#262=SURFACE_STYLE_FILL_AREA(#265);
#263=FILL_AREA_STYLE('',(#266));
#264=FILL_AREA_STYLE('',(#267));
#265=FILL_AREA_STYLE('',(#268));
#266=FILL_AREA_STYLE_COLOUR('',#269);
#267=FILL_AREA_STYLE_COLOUR('',#269);
#268=FILL_AREA_STYLE_COLOUR('',#269);
#269=COLOUR_RGB('',0.689999997615814,0.689999997615814,0.689999997615814);
#270=MANIFOLD_SOLID_BREP('51316 Housing raceway disc',#245);
#271=MANIFOLD_SOLID_BREP('51316 Shaft raceway disc',#246);
#272=MANIFOLD_SOLID_BREP('51316 Ball',#247);
#273=SHAPE_DEFINITION_REPRESENTATION(#486,#277);
#274=SHAPE_DEFINITION_REPRESENTATION(#487,#278);
#275=SHAPE_DEFINITION_REPRESENTATION(#489,#279);
#276=SHAPE_DEFINITION_REPRESENTATION(#491,#280);
#277=SHAPE_REPRESENTATION('51316',(#281,#298,#315,#317,#318,#319,#320,#321,
#322,#323,#324),#475);
#278=SHAPE_REPRESENTATION('51316 Housing raceway disc',(#281),#476);
#279=SHAPE_REPRESENTATION('51316 Shaft raceway disc',(#281),#477);
#280=SHAPE_REPRESENTATION('51316 Ball',(#281),#478);
#281=AXIS2_PLACEMENT_3D('',#413,#325,#326);
#282=AXIS2_PLACEMENT_3D('',#414,#327,#328);
#283=AXIS2_PLACEMENT_3D('',#415,#329,#330);
#284=AXIS2_PLACEMENT_3D('',#417,#331,#332);
#285=AXIS2_PLACEMENT_3D('',#419,#333,#334);
#286=AXIS2_PLACEMENT_3D('',#420,#335,#336);
#287=AXIS2_PLACEMENT_3D('',#422,#337,#338);
#288=AXIS2_PLACEMENT_3D('',#423,#339,#340);
#289=AXIS2_PLACEMENT_3D('',#425,#341,#342);
#290=AXIS2_PLACEMENT_3D('',#426,#343,#344);
#291=AXIS2_PLACEMENT_3D('',#428,#345,#346);
#292=AXIS2_PLACEMENT_3D('',#429,#347,#348);
#293=AXIS2_PLACEMENT_3D('',#431,#349,#350);
#294=AXIS2_PLACEMENT_3D('',#432,#351,#352);
#295=AXIS2_PLACEMENT_3D('',#434,#353,#354);
#296=AXIS2_PLACEMENT_3D('',#435,#355,#356);
#297=AXIS2_PLACEMENT_3D('',#437,#357,#358);
#298=AXIS2_PLACEMENT_3D('',#438,#359,#360);
#299=AXIS2_PLACEMENT_3D('',#439,#361,#362);
#300=AXIS2_PLACEMENT_3D('',#440,#363,#364);
#301=AXIS2_PLACEMENT_3D('',#442,#365,#366);
#302=AXIS2_PLACEMENT_3D('',#444,#367,#368);
#303=AXIS2_PLACEMENT_3D('',#445,#369,#370);
#304=AXIS2_PLACEMENT_3D('',#447,#371,#372);
#305=AXIS2_PLACEMENT_3D('',#448,#373,#374);
#306=AXIS2_PLACEMENT_3D('',#450,#375,#376);
#307=AXIS2_PLACEMENT_3D('',#451,#377,#378);
#308=AXIS2_PLACEMENT_3D('',#453,#379,#380);
#309=AXIS2_PLACEMENT_3D('',#454,#381,#382);
#310=AXIS2_PLACEMENT_3D('',#456,#383,#384);
#311=AXIS2_PLACEMENT_3D('',#457,#385,#386);
#312=AXIS2_PLACEMENT_3D('',#459,#387,#388);
#313=AXIS2_PLACEMENT_3D('',#460,#389,#390);
#314=AXIS2_PLACEMENT_3D('',#462,#391,#392);
#315=AXIS2_PLACEMENT_3D('',#463,#393,#394);
#316=AXIS2_PLACEMENT_3D('',#464,#395,#396);
#317=AXIS2_PLACEMENT_3D('',#466,#397,#398);
#318=AXIS2_PLACEMENT_3D('',#467,#399,#400);
#319=AXIS2_PLACEMENT_3D('',#468,#401,#402);
#320=AXIS2_PLACEMENT_3D('',#469,#403,#404);
#321=AXIS2_PLACEMENT_3D('',#470,#405,#406);
#322=AXIS2_PLACEMENT_3D('',#471,#407,#408);
#323=AXIS2_PLACEMENT_3D('',#472,#409,#410);
#324=AXIS2_PLACEMENT_3D('',#473,#411,#412);
#325=DIRECTION('',(0.,0.,1.));
#326=DIRECTION('',(1.,0.,0.));
#327=DIRECTION('',(6.12323399573677E-17,1.,0.));
#328=DIRECTION('',(-1.,6.12323399573677E-17,0.));
#329=DIRECTION('',(6.12323399573677E-17,1.,0.));
#330=DIRECTION('',(-1.,6.12323399573677E-17,0.));
#331=DIRECTION('',(6.12323399573677E-17,1.,0.));
#332=DIRECTION('',(-1.,6.12323399573677E-17,0.));
#333=DIRECTION('',(6.12323399573677E-17,1.,0.));
#334=DIRECTION('',(-1.,6.12323399573677E-17,0.));
#335=DIRECTION('',(6.12323399573677E-17,1.,0.));
#336=DIRECTION('',(-1.,6.12323399573677E-17,0.));
#337=DIRECTION('',(-6.12323399573677E-17,-1.,0.));
#338=DIRECTION('',(1.,-6.12323399573677E-17,0.));
#339=DIRECTION('',(6.12323399573677E-17,1.,0.));
#340=DIRECTION('',(-1.,6.12323399573677E-17,0.));
#341=DIRECTION('',(6.12323399573677E-17,1.,0.));
#342=DIRECTION('',(-1.,6.12323399573677E-17,0.));
#343=DIRECTION('',(6.12323399573677E-17,1.,0.));
#344=DIRECTION('',(-1.,6.12323399573677E-17,0.));
#345=DIRECTION('',(6.12323399573677E-17,1.,0.));
#346=DIRECTION('',(-1.,6.12323399573677E-17,0.));
#347=DIRECTION('',(6.12323399573677E-17,1.,0.));
#348=DIRECTION('',(-1.,6.12323399573677E-17,0.));
#349=DIRECTION('',(6.12323399573677E-17,1.,0.));
#350=DIRECTION('',(-1.,6.12323399573677E-17,0.));
#351=DIRECTION('',(6.12323399573677E-17,1.,0.));
#352=DIRECTION('',(-1.,6.12323399573677E-17,0.));
#353=DIRECTION('',(6.12323399573677E-17,1.,0.));
#354=DIRECTION('',(-1.,6.12323399573677E-17,0.));
#355=DIRECTION('',(6.12323399573677E-17,1.,0.));
#356=DIRECTION('',(-1.,6.12323399573677E-17,0.));
#357=DIRECTION('',(6.12323399573677E-17,1.,0.));
#358=DIRECTION('',(-1.,6.12323399573677E-17,0.));
#359=DIRECTION('',(0.,0.,1.));
#360=DIRECTION('',(1.,0.,0.));
#361=DIRECTION('',(6.12323399573677E-17,1.,0.));
#362=DIRECTION('',(-1.,6.12323399573677E-17,0.));
#363=DIRECTION('',(6.12323399573677E-17,1.,0.));
#364=DIRECTION('',(-1.,6.12323399573677E-17,0.));
#365=DIRECTION('',(6.12323399573677E-17,1.,0.));
#366=DIRECTION('',(-1.,6.12323399573677E-17,0.));
#367=DIRECTION('',(-6.12323399573677E-17,-1.,0.));
#368=DIRECTION('',(1.,-6.12323399573677E-17,0.));
#369=DIRECTION('',(6.12323399573677E-17,1.,0.));
#370=DIRECTION('',(-1.,6.12323399573677E-17,0.));
#371=DIRECTION('',(6.12323399573677E-17,1.,0.));
#372=DIRECTION('',(-1.,6.12323399573677E-17,0.));
#373=DIRECTION('',(6.12323399573677E-17,1.,0.));
#374=DIRECTION('',(-1.,6.12323399573677E-17,0.));
#375=DIRECTION('',(-6.12323399573677E-17,-1.,0.));
#376=DIRECTION('',(1.,-6.12323399573677E-17,0.));
#377=DIRECTION('',(6.12323399573677E-17,1.,0.));
#378=DIRECTION('',(-1.,6.12323399573677E-17,0.));
#379=DIRECTION('',(6.12323399573677E-17,1.,0.));
#380=DIRECTION('',(-1.,6.12323399573677E-17,0.));
#381=DIRECTION('',(6.12323399573677E-17,1.,0.));
#382=DIRECTION('',(-1.,6.12323399573677E-17,0.));
#383=DIRECTION('',(6.12323399573677E-17,1.,0.));
#384=DIRECTION('',(-1.,6.12323399573677E-17,0.));
#385=DIRECTION('',(6.12323399573677E-17,1.,0.));
#386=DIRECTION('',(-1.,6.12323399573677E-17,0.));
#387=DIRECTION('',(6.12323399573677E-17,1.,0.));
#388=DIRECTION('',(-1.,6.12323399573677E-17,0.));
#389=DIRECTION('',(6.12323399573677E-17,1.,0.));
#390=DIRECTION('',(-1.,6.12323399573677E-17,0.));
#391=DIRECTION('',(6.12323399573677E-17,1.,0.));
#392=DIRECTION('',(-1.,6.12323399573677E-17,0.));
#393=DIRECTION('',(1.,0.,0.));
#394=DIRECTION('',(0.,0.,-1.));
#395=DIRECTION('',(1.,0.,0.));
#396=DIRECTION('',(0.,-1.,0.));
#397=DIRECTION('',(0.,0.,1.));
#398=DIRECTION('',(0.,-1.,0.));
#399=DIRECTION('',(0.,0.,1.));
#400=DIRECTION('',(0.,-1.,0.));
#401=DIRECTION('',(0.,0.,1.));
#402=DIRECTION('',(0.,-1.,0.));
#403=DIRECTION('',(0.,0.,1.));
#404=DIRECTION('',(0.,-1.,0.));
#405=DIRECTION('',(0.,0.,1.));
#406=DIRECTION('',(0.,-1.,0.));
#407=DIRECTION('',(0.,0.,1.));
#408=DIRECTION('',(0.,-1.,0.));
#409=DIRECTION('',(0.,0.,1.));
#410=DIRECTION('',(0.,-1.,0.));
#411=DIRECTION('',(0.,0.,1.));
#412=DIRECTION('',(0.,-1.,0.));
#413=CARTESIAN_POINT('',(0.,0.,0.));
#414=CARTESIAN_POINT('',(8.98074523482525E-16,14.66667,0.));
#415=CARTESIAN_POINT('',(9.18485099360514E-17,1.5,0.));
#416=CARTESIAN_POINT('',(-70.,1.5,0.));
#417=CARTESIAN_POINT('',(8.98074523482525E-16,14.66667,0.));
#418=CARTESIAN_POINT('',(-70.,14.66667,0.));
#419=CARTESIAN_POINT('',(0.,1.50000000000001,0.));
#420=CARTESIAN_POINT('',(-9.62964972193618E-31,-1.38777878078145E-14,0.));
#421=CARTESIAN_POINT('',(-68.5,-9.68337252073477E-15,0.));
#422=CARTESIAN_POINT('',(-68.5,-3.54064365338478E-15,0.));
#423=CARTESIAN_POINT('',(-1.92592994438724E-31,0.,0.));
#424=CARTESIAN_POINT('',(-42.5,2.60237444818813E-15,0.));
#425=CARTESIAN_POINT('',(0.,1.49999999999999,0.));
#426=CARTESIAN_POINT('',(9.18485099360515E-17,1.5,0.));
#427=CARTESIAN_POINT('',(-41.,1.5,0.));
#428=CARTESIAN_POINT('',(8.98074523482525E-16,14.66667,0.));
#429=CARTESIAN_POINT('',(8.98074523482525E-16,14.66667,0.));
#430=CARTESIAN_POINT('',(-41.,14.66667,0.));
#431=CARTESIAN_POINT('',(-41.,14.66667,0.));
#432=CARTESIAN_POINT('',(8.98074523482525E-16,14.66667,0.));
#433=CARTESIAN_POINT('',(-45.1002691394614,14.66667,0.));
#434=CARTESIAN_POINT('',(0.,22.,0.));
#435=CARTESIAN_POINT('',(8.98074523482525E-16,14.66667,0.));
#436=CARTESIAN_POINT('',(-64.8997308605386,14.66667,0.));
#437=CARTESIAN_POINT('',(-64.8997308605386,14.66667,0.));
#438=CARTESIAN_POINT('',(0.,0.,0.));
#439=CARTESIAN_POINT('',(2.69422295812418E-15,44.,0.));
#440=CARTESIAN_POINT('',(1.79614843464165E-15,29.33333,0.));
#441=CARTESIAN_POINT('',(-70.,29.33333,0.));
#442=CARTESIAN_POINT('',(2.60237444818813E-15,42.5,0.));
#443=CARTESIAN_POINT('',(-70.,42.5,0.));
#444=CARTESIAN_POINT('',(-70.,29.33333,0.));
#445=CARTESIAN_POINT('',(1.79614843464165E-15,29.33333,0.));
#446=CARTESIAN_POINT('',(-64.8997308605386,29.33333,0.));
#447=CARTESIAN_POINT('',(0.,22.,0.));
#448=CARTESIAN_POINT('',(1.79614843464165E-15,29.33333,0.));
#449=CARTESIAN_POINT('',(-45.1002691394614,29.33333,0.));
#450=CARTESIAN_POINT('',(-45.1002691394614,29.33333,0.));
#451=CARTESIAN_POINT('',(1.79614843464165E-15,29.33333,0.));
#452=CARTESIAN_POINT('',(-40.,29.33333,0.));
#453=CARTESIAN_POINT('',(2.69422295812418E-15,44.,0.));
#454=CARTESIAN_POINT('',(2.60237444818813E-15,42.5,0.));
#455=CARTESIAN_POINT('',(-40.,42.5,0.));
#456=CARTESIAN_POINT('',(0.,42.5,0.));
#457=CARTESIAN_POINT('',(2.69422295812418E-15,44.,0.));
#458=CARTESIAN_POINT('',(-41.5,44.,0.));
#459=CARTESIAN_POINT('',(-41.5,44.,0.));
#460=CARTESIAN_POINT('',(2.69422295812418E-15,44.,0.));
#461=CARTESIAN_POINT('',(-68.5,44.,0.));
#462=CARTESIAN_POINT('',(0.,42.5,0.));
#463=CARTESIAN_POINT('',(0.,0.,0.));
#464=CARTESIAN_POINT('',(-8.67361737988404E-16,2.60208521396521E-15,0.));
#465=CARTESIAN_POINT('',(-12.32,1.84770278569044E-15,0.));
#466=CARTESIAN_POINT('',(-55.,22.,0.));
#467=CARTESIAN_POINT('',(-38.8908729652601,22.,38.8908729652601));
#468=CARTESIAN_POINT('',(0.,22.,55.));
#469=CARTESIAN_POINT('',(38.8908729652601,22.,38.8908729652601));
#470=CARTESIAN_POINT('',(55.,22.,0.));
#471=CARTESIAN_POINT('',(38.8908729652601,22.,-38.8908729652601));
#472=CARTESIAN_POINT('',(0.,22.,-55.));
#473=CARTESIAN_POINT('',(-38.8908729652601,22.,-38.8908729652601));
#474=MECHANICAL_DESIGN_GEOMETRIC_PRESENTATION_REPRESENTATION('',(#248,#249,
#250),#475);
#475=(
GEOMETRIC_REPRESENTATION_CONTEXT(3)
GLOBAL_UNCERTAINTY_ASSIGNED_CONTEXT((#479))
GLOBAL_UNIT_ASSIGNED_CONTEXT((#485,#484,#483))
REPRESENTATION_CONTEXT('51316','TOP_LEVEL_ASSEMBLY_PART')
);
#476=(
GEOMETRIC_REPRESENTATION_CONTEXT(3)
GLOBAL_UNCERTAINTY_ASSIGNED_CONTEXT((#480))
GLOBAL_UNIT_ASSIGNED_CONTEXT((#485,#484,#483))
REPRESENTATION_CONTEXT('51316 Housing raceway disc','COMPONENT_PART')
);
#477=(
GEOMETRIC_REPRESENTATION_CONTEXT(3)
GLOBAL_UNCERTAINTY_ASSIGNED_CONTEXT((#481))
GLOBAL_UNIT_ASSIGNED_CONTEXT((#485,#484,#483))
REPRESENTATION_CONTEXT('51316 Shaft raceway disc','COMPONENT_PART')
);
#478=(
GEOMETRIC_REPRESENTATION_CONTEXT(3)
GLOBAL_UNCERTAINTY_ASSIGNED_CONTEXT((#482))
GLOBAL_UNIT_ASSIGNED_CONTEXT((#485,#484,#483))
REPRESENTATION_CONTEXT('51316 Ball','COMPONENT_PART')
);
#479=UNCERTAINTY_MEASURE_WITH_UNIT(LENGTH_MEASURE(0.005),#485,
'DISTANCE_ACCURACY_VALUE','Maximum Tolerance applied to model');
#480=UNCERTAINTY_MEASURE_WITH_UNIT(LENGTH_MEASURE(0.005),#485,
'DISTANCE_ACCURACY_VALUE','Maximum Tolerance applied to model');
#481=UNCERTAINTY_MEASURE_WITH_UNIT(LENGTH_MEASURE(0.005),#485,
'DISTANCE_ACCURACY_VALUE','Maximum Tolerance applied to model');
#482=UNCERTAINTY_MEASURE_WITH_UNIT(LENGTH_MEASURE(0.005),#485,
'DISTANCE_ACCURACY_VALUE','Maximum Tolerance applied to model');
#483=(
NAMED_UNIT(*)
SI_UNIT($,.STERADIAN.)
SOLID_ANGLE_UNIT()
);
#484=(
NAMED_UNIT(*)
PLANE_ANGLE_UNIT()
SI_UNIT($,.RADIAN.)
);
#485=(
LENGTH_UNIT()
NAMED_UNIT(*)
SI_UNIT(.MILLI.,.METRE.)
);
#486=PRODUCT_DEFINITION_SHAPE('','',#500);
#487=PRODUCT_DEFINITION_SHAPE('','',#501);
#488=PRODUCT_DEFINITION_SHAPE(' ','NAUO PRDDFN',#30);
#489=PRODUCT_DEFINITION_SHAPE('','',#502);
#490=PRODUCT_DEFINITION_SHAPE(' ','NAUO PRDDFN',#31);
#491=PRODUCT_DEFINITION_SHAPE('','',#503);
#492=PRODUCT_DEFINITION_SHAPE(' ','NAUO PRDDFN',#32);
#493=PRODUCT_DEFINITION_SHAPE(' ','NAUO PRDDFN',#33);
#494=PRODUCT_DEFINITION_SHAPE(' ','NAUO PRDDFN',#34);
#495=PRODUCT_DEFINITION_SHAPE(' ','NAUO PRDDFN',#35);
#496=PRODUCT_DEFINITION_SHAPE(' ','NAUO PRDDFN',#36);
#497=PRODUCT_DEFINITION_SHAPE(' ','NAUO PRDDFN',#37);
#498=PRODUCT_DEFINITION_SHAPE(' ','NAUO PRDDFN',#38);
#499=PRODUCT_DEFINITION_SHAPE(' ','NAUO PRDDFN',#39);
#500=PRODUCT_DEFINITION('','',#508,#504);
#501=PRODUCT_DEFINITION('','',#509,#505);
#502=PRODUCT_DEFINITION('','',#510,#506);
#503=PRODUCT_DEFINITION('','',#511,#507);
#504=PRODUCT_DEFINITION_CONTEXT('',#529,'design');
#505=PRODUCT_DEFINITION_CONTEXT('',#529,'design');
#506=PRODUCT_DEFINITION_CONTEXT('',#529,'design');
#507=PRODUCT_DEFINITION_CONTEXT('',#529,'design');
#508=PRODUCT_DEFINITION_FORMATION_WITH_SPECIFIED_SOURCE('','',#516,
 .NOT_KNOWN.);
#509=PRODUCT_DEFINITION_FORMATION_WITH_SPECIFIED_SOURCE('','',#517,
 .NOT_KNOWN.);
#510=PRODUCT_DEFINITION_FORMATION_WITH_SPECIFIED_SOURCE('','',#518,
 .NOT_KNOWN.);
#511=PRODUCT_DEFINITION_FORMATION_WITH_SPECIFIED_SOURCE('','',#519,
 .NOT_KNOWN.);
#512=PRODUCT_RELATED_PRODUCT_CATEGORY('','',(#516));
#513=PRODUCT_RELATED_PRODUCT_CATEGORY('','',(#517));
#514=PRODUCT_RELATED_PRODUCT_CATEGORY('','',(#518));
#515=PRODUCT_RELATED_PRODUCT_CATEGORY('','',(#519));
#516=PRODUCT('51316','51316','51316',(#524));
#517=PRODUCT('51316 Housing raceway disc','51316 Housing raceway disc',
'51316 Housing raceway disc',(#525));
#518=PRODUCT('51316 Shaft raceway disc','51316 Shaft raceway disc',
'51316 Shaft raceway disc',(#526));
#519=PRODUCT('51316 Ball','51316 Ball','51316 Ball',(#527));
#520=PRODUCT_CATEGORY('','');
#521=PRODUCT_CATEGORY('','');
#522=PRODUCT_CATEGORY('','');
#523=PRODUCT_CATEGORY('','');
#524=PRODUCT_CONTEXT('',#529,'mechanical');
#525=PRODUCT_CONTEXT('',#529,'mechanical');
#526=PRODUCT_CONTEXT('',#529,'mechanical');
#527=PRODUCT_CONTEXT('',#529,'mechanical');
#528=APPLICATION_PROTOCOL_DEFINITION('international standard',
'automotive_design',2010,#529);
#529=APPLICATION_CONTEXT(
'core data for automotive mechanical design processes');
ENDSEC;
END-ISO-10303-21;
