ISO-10303-21;
HEADER;
/* Generated by software containing ST-Developer
 * from STEP Tools, Inc. (www.steptools.com) 
 */
/* OPTION: using custom renumber hook */

FILE_DESCRIPTION(
/* description */ ('STEP AP214'),
/* implementation_level */ '2;1');

FILE_NAME(
/* name */ '51110',
/* time_stamp */ '2025-09-18T14:11:25+02:00',
/* author */ ('License CC BY-ND 4.0'),
/* organization */ ('CADENAS'),
/* preprocessor_version */ 'ST-DEVELOPER v19.3',
/* originating_system */ 'PARTsolutions',
/* authorisation */ '  ');

FILE_SCHEMA (('AUTOMOTIVE_DESIGN {1 0 10303 214 3 1 1}'));
ENDSEC;

DATA;
#10=PROPERTY_DEFINITION_REPRESENTATION(#14,#12);
#11=PROPERTY_DEFINITION_REPRESENTATION(#15,#13);
#12=REPRESENTATION('',(#16),#523);
#13=REPRESENTATION('',(#17),#523);
#14=PROPERTY_DEFINITION('pmi validation property','',#534);
#15=PROPERTY_DEFINITION('pmi validation property','',#534);
#16=VALUE_REPRESENTATION_ITEM('number of annotations',COUNT_MEASURE(0.));
#17=VALUE_REPRESENTATION_ITEM('number of views',COUNT_MEASURE(0.));
#18=VERTEX_LOOP('',#166);
#19=SPHERICAL_SURFACE('',#340,3.92);
#20=CONTEXT_DEPENDENT_SHAPE_REPRESENTATION(#52,#536);
#21=CONTEXT_DEPENDENT_SHAPE_REPRESENTATION(#53,#538);
#22=CONTEXT_DEPENDENT_SHAPE_REPRESENTATION(#54,#540);
#23=CONTEXT_DEPENDENT_SHAPE_REPRESENTATION(#55,#541);
#24=CONTEXT_DEPENDENT_SHAPE_REPRESENTATION(#56,#542);
#25=CONTEXT_DEPENDENT_SHAPE_REPRESENTATION(#57,#543);
#26=CONTEXT_DEPENDENT_SHAPE_REPRESENTATION(#58,#544);
#27=CONTEXT_DEPENDENT_SHAPE_REPRESENTATION(#59,#545);
#28=CONTEXT_DEPENDENT_SHAPE_REPRESENTATION(#60,#546);
#29=CONTEXT_DEPENDENT_SHAPE_REPRESENTATION(#61,#547);
#30=CONTEXT_DEPENDENT_SHAPE_REPRESENTATION(#62,#548);
#31=CONTEXT_DEPENDENT_SHAPE_REPRESENTATION(#63,#549);
#32=CONTEXT_DEPENDENT_SHAPE_REPRESENTATION(#64,#550);
#33=CONTEXT_DEPENDENT_SHAPE_REPRESENTATION(#65,#551);
#34=CONTEXT_DEPENDENT_SHAPE_REPRESENTATION(#66,#552);
#35=CONTEXT_DEPENDENT_SHAPE_REPRESENTATION(#67,#553);
#36=NEXT_ASSEMBLY_USAGE_OCCURRENCE('NAUO1','51110 Housing raceway disc',
'51110 Housing raceway disc',#554,#555,'');
#37=NEXT_ASSEMBLY_USAGE_OCCURRENCE('NAUO2','51110 Shaft raceway disc',
'51110 Shaft raceway disc',#554,#556,'');
#38=NEXT_ASSEMBLY_USAGE_OCCURRENCE('NAUO3','51110 Ball','51110 Ball',#554,
#557,'');
#39=NEXT_ASSEMBLY_USAGE_OCCURRENCE('NAUO4','51110 Ball','51110 Ball',#554,
#557,'');
#40=NEXT_ASSEMBLY_USAGE_OCCURRENCE('NAUO5','51110 Ball','51110 Ball',#554,
#557,'');
#41=NEXT_ASSEMBLY_USAGE_OCCURRENCE('NAUO6','51110 Ball','51110 Ball',#554,
#557,'');
#42=NEXT_ASSEMBLY_USAGE_OCCURRENCE('NAUO7','51110 Ball','51110 Ball',#554,
#557,'');
#43=NEXT_ASSEMBLY_USAGE_OCCURRENCE('NAUO8','51110 Ball','51110 Ball',#554,
#557,'');
#44=NEXT_ASSEMBLY_USAGE_OCCURRENCE('NAUO9','51110 Ball','51110 Ball',#554,
#557,'');
#45=NEXT_ASSEMBLY_USAGE_OCCURRENCE('NAUO10','51110 Ball','51110 Ball',#554,
#557,'');
#46=NEXT_ASSEMBLY_USAGE_OCCURRENCE('NAUO11','51110 Ball','51110 Ball',#554,
#557,'');
#47=NEXT_ASSEMBLY_USAGE_OCCURRENCE('NAUO12','51110 Ball','51110 Ball',#554,
#557,'');
#48=NEXT_ASSEMBLY_USAGE_OCCURRENCE('NAUO13','51110 Ball','51110 Ball',#554,
#557,'');
#49=NEXT_ASSEMBLY_USAGE_OCCURRENCE('NAUO14','51110 Ball','51110 Ball',#554,
#557,'');
#50=NEXT_ASSEMBLY_USAGE_OCCURRENCE('NAUO15','51110 Ball','51110 Ball',#554,
#557,'');
#51=NEXT_ASSEMBLY_USAGE_OCCURRENCE('NAUO16','51110 Ball','51110 Ball',#554,
#557,'');
#52=(
REPRESENTATION_RELATIONSHIP(' ',' ',#302,#301)
REPRESENTATION_RELATIONSHIP_WITH_TRANSFORMATION(#68)
SHAPE_REPRESENTATION_RELATIONSHIP()
);
#53=(
REPRESENTATION_RELATIONSHIP(' ',' ',#303,#301)
REPRESENTATION_RELATIONSHIP_WITH_TRANSFORMATION(#69)
SHAPE_REPRESENTATION_RELATIONSHIP()
);
#54=(
REPRESENTATION_RELATIONSHIP(' ',' ',#304,#301)
REPRESENTATION_RELATIONSHIP_WITH_TRANSFORMATION(#70)
SHAPE_REPRESENTATION_RELATIONSHIP()
);
#55=(
REPRESENTATION_RELATIONSHIP(' ',' ',#304,#301)
REPRESENTATION_RELATIONSHIP_WITH_TRANSFORMATION(#71)
SHAPE_REPRESENTATION_RELATIONSHIP()
);
#56=(
REPRESENTATION_RELATIONSHIP(' ',' ',#304,#301)
REPRESENTATION_RELATIONSHIP_WITH_TRANSFORMATION(#72)
SHAPE_REPRESENTATION_RELATIONSHIP()
);
#57=(
REPRESENTATION_RELATIONSHIP(' ',' ',#304,#301)
REPRESENTATION_RELATIONSHIP_WITH_TRANSFORMATION(#73)
SHAPE_REPRESENTATION_RELATIONSHIP()
);
#58=(
REPRESENTATION_RELATIONSHIP(' ',' ',#304,#301)
REPRESENTATION_RELATIONSHIP_WITH_TRANSFORMATION(#74)
SHAPE_REPRESENTATION_RELATIONSHIP()
);
#59=(
REPRESENTATION_RELATIONSHIP(' ',' ',#304,#301)
REPRESENTATION_RELATIONSHIP_WITH_TRANSFORMATION(#75)
SHAPE_REPRESENTATION_RELATIONSHIP()
);
#60=(
REPRESENTATION_RELATIONSHIP(' ',' ',#304,#301)
REPRESENTATION_RELATIONSHIP_WITH_TRANSFORMATION(#76)
SHAPE_REPRESENTATION_RELATIONSHIP()
);
#61=(
REPRESENTATION_RELATIONSHIP(' ',' ',#304,#301)
REPRESENTATION_RELATIONSHIP_WITH_TRANSFORMATION(#77)
SHAPE_REPRESENTATION_RELATIONSHIP()
);
#62=(
REPRESENTATION_RELATIONSHIP(' ',' ',#304,#301)
REPRESENTATION_RELATIONSHIP_WITH_TRANSFORMATION(#78)
SHAPE_REPRESENTATION_RELATIONSHIP()
);
#63=(
REPRESENTATION_RELATIONSHIP(' ',' ',#304,#301)
REPRESENTATION_RELATIONSHIP_WITH_TRANSFORMATION(#79)
SHAPE_REPRESENTATION_RELATIONSHIP()
);
#64=(
REPRESENTATION_RELATIONSHIP(' ',' ',#304,#301)
REPRESENTATION_RELATIONSHIP_WITH_TRANSFORMATION(#80)
SHAPE_REPRESENTATION_RELATIONSHIP()
);
#65=(
REPRESENTATION_RELATIONSHIP(' ',' ',#304,#301)
REPRESENTATION_RELATIONSHIP_WITH_TRANSFORMATION(#81)
SHAPE_REPRESENTATION_RELATIONSHIP()
);
#66=(
REPRESENTATION_RELATIONSHIP(' ',' ',#304,#301)
REPRESENTATION_RELATIONSHIP_WITH_TRANSFORMATION(#82)
SHAPE_REPRESENTATION_RELATIONSHIP()
);
#67=(
REPRESENTATION_RELATIONSHIP(' ',' ',#304,#301)
REPRESENTATION_RELATIONSHIP_WITH_TRANSFORMATION(#83)
SHAPE_REPRESENTATION_RELATIONSHIP()
);
#68=ITEM_DEFINED_TRANSFORMATION(' ',' ',#305,#322);
#69=ITEM_DEFINED_TRANSFORMATION(' ',' ',#305,#339);
#70=ITEM_DEFINED_TRANSFORMATION(' ',' ',#305,#341);
#71=ITEM_DEFINED_TRANSFORMATION(' ',' ',#305,#342);
#72=ITEM_DEFINED_TRANSFORMATION(' ',' ',#305,#343);
#73=ITEM_DEFINED_TRANSFORMATION(' ',' ',#305,#344);
#74=ITEM_DEFINED_TRANSFORMATION(' ',' ',#305,#345);
#75=ITEM_DEFINED_TRANSFORMATION(' ',' ',#305,#346);
#76=ITEM_DEFINED_TRANSFORMATION(' ',' ',#305,#347);
#77=ITEM_DEFINED_TRANSFORMATION(' ',' ',#305,#348);
#78=ITEM_DEFINED_TRANSFORMATION(' ',' ',#305,#349);
#79=ITEM_DEFINED_TRANSFORMATION(' ',' ',#305,#350);
#80=ITEM_DEFINED_TRANSFORMATION(' ',' ',#305,#351);
#81=ITEM_DEFINED_TRANSFORMATION(' ',' ',#305,#352);
#82=ITEM_DEFINED_TRANSFORMATION(' ',' ',#305,#353);
#83=ITEM_DEFINED_TRANSFORMATION(' ',' ',#305,#354);
#84=SHAPE_REPRESENTATION_RELATIONSHIP('','',#302,#87);
#85=SHAPE_REPRESENTATION_RELATIONSHIP('','',#303,#88);
#86=SHAPE_REPRESENTATION_RELATIONSHIP('','',#304,#89);
#87=ADVANCED_BREP_SHAPE_REPRESENTATION('',(#294),#524);
#88=ADVANCED_BREP_SHAPE_REPRESENTATION('',(#295),#525);
#89=ADVANCED_BREP_SHAPE_REPRESENTATION('',(#296),#526);
#90=PLANE('',#311);
#91=PLANE('',#317);
#92=PLANE('',#321);
#93=PLANE('',#326);
#94=PLANE('',#330);
#95=PLANE('',#336);
#96=TOROIDAL_SURFACE('',#309,34.4,0.599999999999996);
#97=TOROIDAL_SURFACE('',#313,26.6,0.599999999999999);
#98=TOROIDAL_SURFACE('',#319,30.,3.92);
#99=TOROIDAL_SURFACE('',#328,30.,3.92);
#100=TOROIDAL_SURFACE('',#334,25.6,0.600000000000003);
#101=TOROIDAL_SURFACE('',#338,34.4,0.600000000000002);
#102=ORIENTED_EDGE('',*,*,#134,.T.);
#103=ORIENTED_EDGE('',*,*,#135,.F.);
#104=ORIENTED_EDGE('',*,*,#136,.T.);
#105=ORIENTED_EDGE('',*,*,#134,.F.);
#106=ORIENTED_EDGE('',*,*,#137,.T.);
#107=ORIENTED_EDGE('',*,*,#136,.F.);
#108=ORIENTED_EDGE('',*,*,#138,.T.);
#109=ORIENTED_EDGE('',*,*,#137,.F.);
#110=ORIENTED_EDGE('',*,*,#139,.T.);
#111=ORIENTED_EDGE('',*,*,#138,.F.);
#112=ORIENTED_EDGE('',*,*,#140,.T.);
#113=ORIENTED_EDGE('',*,*,#139,.F.);
#114=ORIENTED_EDGE('',*,*,#140,.F.);
#115=ORIENTED_EDGE('',*,*,#141,.T.);
#116=ORIENTED_EDGE('',*,*,#135,.T.);
#117=ORIENTED_EDGE('',*,*,#141,.F.);
#118=ORIENTED_EDGE('',*,*,#142,.T.);
#119=ORIENTED_EDGE('',*,*,#143,.F.);
#120=ORIENTED_EDGE('',*,*,#144,.T.);
#121=ORIENTED_EDGE('',*,*,#142,.F.);
#122=ORIENTED_EDGE('',*,*,#144,.F.);
#123=ORIENTED_EDGE('',*,*,#145,.T.);
#124=ORIENTED_EDGE('',*,*,#146,.T.);
#125=ORIENTED_EDGE('',*,*,#145,.F.);
#126=ORIENTED_EDGE('',*,*,#147,.T.);
#127=ORIENTED_EDGE('',*,*,#146,.F.);
#128=ORIENTED_EDGE('',*,*,#148,.T.);
#129=ORIENTED_EDGE('',*,*,#147,.F.);
#130=ORIENTED_EDGE('',*,*,#149,.T.);
#131=ORIENTED_EDGE('',*,*,#148,.F.);
#132=ORIENTED_EDGE('',*,*,#143,.T.);
#133=ORIENTED_EDGE('',*,*,#149,.F.);
#134=EDGE_CURVE('',#150,#150,#167,.T.);
#135=EDGE_CURVE('',#151,#151,#168,.T.);
#136=EDGE_CURVE('',#152,#152,#169,.T.);
#137=EDGE_CURVE('',#153,#153,#170,.T.);
#138=EDGE_CURVE('',#154,#154,#171,.T.);
#139=EDGE_CURVE('',#155,#155,#172,.T.);
#140=EDGE_CURVE('',#156,#156,#173,.T.);
#141=EDGE_CURVE('',#157,#157,#174,.T.);
#142=EDGE_CURVE('',#158,#158,#175,.T.);
#143=EDGE_CURVE('',#159,#159,#176,.T.);
#144=EDGE_CURVE('',#160,#160,#177,.T.);
#145=EDGE_CURVE('',#161,#161,#178,.T.);
#146=EDGE_CURVE('',#162,#162,#179,.T.);
#147=EDGE_CURVE('',#163,#163,#180,.T.);
#148=EDGE_CURVE('',#164,#164,#181,.T.);
#149=EDGE_CURVE('',#165,#165,#182,.T.);
#150=VERTEX_POINT('',#458);
#151=VERTEX_POINT('',#460);
#152=VERTEX_POINT('',#463);
#153=VERTEX_POINT('',#466);
#154=VERTEX_POINT('',#469);
#155=VERTEX_POINT('',#472);
#156=VERTEX_POINT('',#475);
#157=VERTEX_POINT('',#478);
#158=VERTEX_POINT('',#483);
#159=VERTEX_POINT('',#485);
#160=VERTEX_POINT('',#488);
#161=VERTEX_POINT('',#491);
#162=VERTEX_POINT('',#494);
#163=VERTEX_POINT('',#497);
#164=VERTEX_POINT('',#500);
#165=VERTEX_POINT('',#503);
#166=VERTEX_POINT('',#507);
#167=CIRCLE('',#307,35.);
#168=CIRCLE('',#308,35.);
#169=CIRCLE('',#310,34.4);
#170=CIRCLE('',#312,26.6);
#171=CIRCLE('',#314,26.);
#172=CIRCLE('',#316,26.);
#173=CIRCLE('',#318,26.8500839517378);
#174=CIRCLE('',#320,33.1499160482622);
#175=CIRCLE('',#324,35.);
#176=CIRCLE('',#325,35.);
#177=CIRCLE('',#327,33.1499160482622);
#178=CIRCLE('',#329,26.8500839517378);
#179=CIRCLE('',#331,25.);
#180=CIRCLE('',#333,25.);
#181=CIRCLE('',#335,25.6);
#182=CIRCLE('',#337,34.4);
#183=EDGE_LOOP('',(#102));
#184=EDGE_LOOP('',(#103));
#185=EDGE_LOOP('',(#104));
#186=EDGE_LOOP('',(#105));
#187=EDGE_LOOP('',(#106));
#188=EDGE_LOOP('',(#107));
#189=EDGE_LOOP('',(#108));
#190=EDGE_LOOP('',(#109));
#191=EDGE_LOOP('',(#110));
#192=EDGE_LOOP('',(#111));
#193=EDGE_LOOP('',(#112));
#194=EDGE_LOOP('',(#113));
#195=EDGE_LOOP('',(#114));
#196=EDGE_LOOP('',(#115));
#197=EDGE_LOOP('',(#116));
#198=EDGE_LOOP('',(#117));
#199=EDGE_LOOP('',(#118));
#200=EDGE_LOOP('',(#119));
#201=EDGE_LOOP('',(#120));
#202=EDGE_LOOP('',(#121));
#203=EDGE_LOOP('',(#122));
#204=EDGE_LOOP('',(#123));
#205=EDGE_LOOP('',(#124));
#206=EDGE_LOOP('',(#125));
#207=EDGE_LOOP('',(#126));
#208=EDGE_LOOP('',(#127));
#209=EDGE_LOOP('',(#128));
#210=EDGE_LOOP('',(#129));
#211=EDGE_LOOP('',(#130));
#212=EDGE_LOOP('',(#131));
#213=EDGE_LOOP('',(#132));
#214=EDGE_LOOP('',(#133));
#215=FACE_BOUND('',#183,.T.);
#216=FACE_BOUND('',#184,.T.);
#217=FACE_BOUND('',#185,.T.);
#218=FACE_BOUND('',#186,.T.);
#219=FACE_BOUND('',#187,.T.);
#220=FACE_BOUND('',#188,.T.);
#221=FACE_BOUND('',#189,.T.);
#222=FACE_BOUND('',#190,.T.);
#223=FACE_BOUND('',#191,.T.);
#224=FACE_BOUND('',#192,.T.);
#225=FACE_BOUND('',#193,.T.);
#226=FACE_BOUND('',#194,.T.);
#227=FACE_BOUND('',#195,.T.);
#228=FACE_BOUND('',#196,.T.);
#229=FACE_BOUND('',#197,.T.);
#230=FACE_BOUND('',#198,.T.);
#231=FACE_BOUND('',#199,.T.);
#232=FACE_BOUND('',#200,.T.);
#233=FACE_BOUND('',#201,.T.);
#234=FACE_BOUND('',#202,.T.);
#235=FACE_BOUND('',#203,.T.);
#236=FACE_BOUND('',#204,.T.);
#237=FACE_BOUND('',#205,.T.);
#238=FACE_BOUND('',#206,.T.);
#239=FACE_BOUND('',#207,.T.);
#240=FACE_BOUND('',#208,.T.);
#241=FACE_BOUND('',#209,.T.);
#242=FACE_BOUND('',#210,.T.);
#243=FACE_BOUND('',#211,.T.);
#244=FACE_BOUND('',#212,.T.);
#245=FACE_BOUND('',#213,.T.);
#246=FACE_BOUND('',#214,.T.);
#247=FACE_BOUND('',#18,.T.);
#248=CYLINDRICAL_SURFACE('',#306,35.);
#249=CYLINDRICAL_SURFACE('',#315,26.);
#250=CYLINDRICAL_SURFACE('',#323,35.);
#251=CYLINDRICAL_SURFACE('',#332,25.);
#252=ADVANCED_FACE('',(#215,#216),#248,.T.);
#253=ADVANCED_FACE('',(#217,#218),#96,.T.);
#254=ADVANCED_FACE('',(#219,#220),#90,.T.);
#255=ADVANCED_FACE('',(#221,#222),#97,.T.);
#256=ADVANCED_FACE('',(#223,#224),#249,.F.);
#257=ADVANCED_FACE('',(#225,#226),#91,.T.);
#258=ADVANCED_FACE('',(#227,#228),#98,.F.);
#259=ADVANCED_FACE('',(#229,#230),#92,.T.);
#260=ADVANCED_FACE('',(#231,#232),#250,.T.);
#261=ADVANCED_FACE('',(#233,#234),#93,.T.);
#262=ADVANCED_FACE('',(#235,#236),#99,.F.);
#263=ADVANCED_FACE('',(#237,#238),#94,.T.);
#264=ADVANCED_FACE('',(#239,#240),#251,.F.);
#265=ADVANCED_FACE('',(#241,#242),#100,.T.);
#266=ADVANCED_FACE('',(#243,#244),#95,.T.);
#267=ADVANCED_FACE('',(#245,#246),#101,.T.);
#268=ADVANCED_FACE('',(#247),#19,.T.);
#269=CLOSED_SHELL('',(#252,#253,#254,#255,#256,#257,#258,#259));
#270=CLOSED_SHELL('',(#260,#261,#262,#263,#264,#265,#266,#267));
#271=CLOSED_SHELL('',(#268));
#272=STYLED_ITEM('',(#275),#294);
#273=STYLED_ITEM('',(#276),#295);
#274=STYLED_ITEM('',(#277),#296);
#275=PRESENTATION_STYLE_ASSIGNMENT((#278));
#276=PRESENTATION_STYLE_ASSIGNMENT((#279));
#277=PRESENTATION_STYLE_ASSIGNMENT((#280));
#278=SURFACE_STYLE_USAGE(.BOTH.,#281);
#279=SURFACE_STYLE_USAGE(.BOTH.,#282);
#280=SURFACE_STYLE_USAGE(.BOTH.,#283);
#281=SURFACE_SIDE_STYLE('',(#284));
#282=SURFACE_SIDE_STYLE('',(#285));
#283=SURFACE_SIDE_STYLE('',(#286));
#284=SURFACE_STYLE_FILL_AREA(#287);
#285=SURFACE_STYLE_FILL_AREA(#288);
#286=SURFACE_STYLE_FILL_AREA(#289);
#287=FILL_AREA_STYLE('',(#290));
#288=FILL_AREA_STYLE('',(#291));
#289=FILL_AREA_STYLE('',(#292));
#290=FILL_AREA_STYLE_COLOUR('',#293);
#291=FILL_AREA_STYLE_COLOUR('',#293);
#292=FILL_AREA_STYLE_COLOUR('',#293);
#293=COLOUR_RGB('',0.689999997615814,0.689999997615814,0.689999997615814);
#294=MANIFOLD_SOLID_BREP('51110 Housing raceway disc',#269);
#295=MANIFOLD_SOLID_BREP('51110 Shaft raceway disc',#270);
#296=MANIFOLD_SOLID_BREP('51110 Ball',#271);
#297=SHAPE_DEFINITION_REPRESENTATION(#534,#301);
#298=SHAPE_DEFINITION_REPRESENTATION(#535,#302);
#299=SHAPE_DEFINITION_REPRESENTATION(#537,#303);
#300=SHAPE_DEFINITION_REPRESENTATION(#539,#304);
#301=SHAPE_REPRESENTATION('51110',(#305,#322,#339,#341,#342,#343,#344,#345,
#346,#347,#348,#349,#350,#351,#352,#353,#354),#523);
#302=SHAPE_REPRESENTATION('51110 Housing raceway disc',(#305),#524);
#303=SHAPE_REPRESENTATION('51110 Shaft raceway disc',(#305),#525);
#304=SHAPE_REPRESENTATION('51110 Ball',(#305),#526);
#305=AXIS2_PLACEMENT_3D('',#455,#355,#356);
#306=AXIS2_PLACEMENT_3D('',#456,#357,#358);
#307=AXIS2_PLACEMENT_3D('',#457,#359,#360);
#308=AXIS2_PLACEMENT_3D('',#459,#361,#362);
#309=AXIS2_PLACEMENT_3D('',#461,#363,#364);
#310=AXIS2_PLACEMENT_3D('',#462,#365,#366);
#311=AXIS2_PLACEMENT_3D('',#464,#367,#368);
#312=AXIS2_PLACEMENT_3D('',#465,#369,#370);
#313=AXIS2_PLACEMENT_3D('',#467,#371,#372);
#314=AXIS2_PLACEMENT_3D('',#468,#373,#374);
#315=AXIS2_PLACEMENT_3D('',#470,#375,#376);
#316=AXIS2_PLACEMENT_3D('',#471,#377,#378);
#317=AXIS2_PLACEMENT_3D('',#473,#379,#380);
#318=AXIS2_PLACEMENT_3D('',#474,#381,#382);
#319=AXIS2_PLACEMENT_3D('',#476,#383,#384);
#320=AXIS2_PLACEMENT_3D('',#477,#385,#386);
#321=AXIS2_PLACEMENT_3D('',#479,#387,#388);
#322=AXIS2_PLACEMENT_3D('',#480,#389,#390);
#323=AXIS2_PLACEMENT_3D('',#481,#391,#392);
#324=AXIS2_PLACEMENT_3D('',#482,#393,#394);
#325=AXIS2_PLACEMENT_3D('',#484,#395,#396);
#326=AXIS2_PLACEMENT_3D('',#486,#397,#398);
#327=AXIS2_PLACEMENT_3D('',#487,#399,#400);
#328=AXIS2_PLACEMENT_3D('',#489,#401,#402);
#329=AXIS2_PLACEMENT_3D('',#490,#403,#404);
#330=AXIS2_PLACEMENT_3D('',#492,#405,#406);
#331=AXIS2_PLACEMENT_3D('',#493,#407,#408);
#332=AXIS2_PLACEMENT_3D('',#495,#409,#410);
#333=AXIS2_PLACEMENT_3D('',#496,#411,#412);
#334=AXIS2_PLACEMENT_3D('',#498,#413,#414);
#335=AXIS2_PLACEMENT_3D('',#499,#415,#416);
#336=AXIS2_PLACEMENT_3D('',#501,#417,#418);
#337=AXIS2_PLACEMENT_3D('',#502,#419,#420);
#338=AXIS2_PLACEMENT_3D('',#504,#421,#422);
#339=AXIS2_PLACEMENT_3D('',#505,#423,#424);
#340=AXIS2_PLACEMENT_3D('',#506,#425,#426);
#341=AXIS2_PLACEMENT_3D('',#508,#427,#428);
#342=AXIS2_PLACEMENT_3D('',#509,#429,#430);
#343=AXIS2_PLACEMENT_3D('',#510,#431,#432);
#344=AXIS2_PLACEMENT_3D('',#511,#433,#434);
#345=AXIS2_PLACEMENT_3D('',#512,#435,#436);
#346=AXIS2_PLACEMENT_3D('',#513,#437,#438);
#347=AXIS2_PLACEMENT_3D('',#514,#439,#440);
#348=AXIS2_PLACEMENT_3D('',#515,#441,#442);
#349=AXIS2_PLACEMENT_3D('',#516,#443,#444);
#350=AXIS2_PLACEMENT_3D('',#517,#445,#446);
#351=AXIS2_PLACEMENT_3D('',#518,#447,#448);
#352=AXIS2_PLACEMENT_3D('',#519,#449,#450);
#353=AXIS2_PLACEMENT_3D('',#520,#451,#452);
#354=AXIS2_PLACEMENT_3D('',#521,#453,#454);
#355=DIRECTION('',(0.,0.,1.));
#356=DIRECTION('',(1.,0.,0.));
#357=DIRECTION('',(6.12323399573676E-17,1.,0.));
#358=DIRECTION('',(-1.,6.12323399573676E-17,0.));
#359=DIRECTION('',(6.12323399573676E-17,1.,0.));
#360=DIRECTION('',(-1.,6.12323399573676E-17,0.));
#361=DIRECTION('',(6.12323399573676E-17,1.,0.));
#362=DIRECTION('',(-1.,6.12323399573676E-17,0.));
#363=DIRECTION('',(6.12323399573676E-17,1.,0.));
#364=DIRECTION('',(-1.,6.12323399573676E-17,0.));
#365=DIRECTION('',(6.12323399573676E-17,1.,0.));
#366=DIRECTION('',(-1.,6.12323399573676E-17,0.));
#367=DIRECTION('',(-6.12323399573676E-17,-1.,0.));
#368=DIRECTION('',(1.,-6.12323399573676E-17,0.));
#369=DIRECTION('',(6.12323399573676E-17,1.,0.));
#370=DIRECTION('',(-1.,6.12323399573676E-17,0.));
#371=DIRECTION('',(6.12323399573676E-17,1.,0.));
#372=DIRECTION('',(-1.,6.12323399573676E-17,0.));
#373=DIRECTION('',(6.12323399573676E-17,1.,0.));
#374=DIRECTION('',(-1.,6.12323399573676E-17,0.));
#375=DIRECTION('',(6.12323399573676E-17,1.,0.));
#376=DIRECTION('',(-1.,6.12323399573676E-17,0.));
#377=DIRECTION('',(6.12323399573676E-17,1.,0.));
#378=DIRECTION('',(-1.,6.12323399573676E-17,0.));
#379=DIRECTION('',(6.12323399573676E-17,1.,0.));
#380=DIRECTION('',(-1.,6.12323399573676E-17,0.));
#381=DIRECTION('',(6.12323399573676E-17,1.,0.));
#382=DIRECTION('',(-1.,6.12323399573676E-17,0.));
#383=DIRECTION('',(6.12323399573676E-17,1.,0.));
#384=DIRECTION('',(-1.,6.12323399573676E-17,0.));
#385=DIRECTION('',(6.12323399573676E-17,1.,0.));
#386=DIRECTION('',(-1.,6.12323399573676E-17,0.));
#387=DIRECTION('',(6.12323399573676E-17,1.,0.));
#388=DIRECTION('',(-1.,6.12323399573676E-17,0.));
#389=DIRECTION('',(0.,0.,1.));
#390=DIRECTION('',(1.,0.,0.));
#391=DIRECTION('',(6.12323399573677E-17,1.,0.));
#392=DIRECTION('',(-1.,6.12323399573677E-17,0.));
#393=DIRECTION('',(6.12323399573677E-17,1.,0.));
#394=DIRECTION('',(-1.,6.12323399573677E-17,0.));
#395=DIRECTION('',(6.12323399573677E-17,1.,0.));
#396=DIRECTION('',(-1.,6.12323399573677E-17,0.));
#397=DIRECTION('',(-6.12323399573677E-17,-1.,0.));
#398=DIRECTION('',(1.,-6.12323399573677E-17,0.));
#399=DIRECTION('',(6.12323399573677E-17,1.,0.));
#400=DIRECTION('',(-1.,6.12323399573677E-17,0.));
#401=DIRECTION('',(6.12323399573677E-17,1.,0.));
#402=DIRECTION('',(-1.,6.12323399573677E-17,0.));
#403=DIRECTION('',(6.12323399573677E-17,1.,0.));
#404=DIRECTION('',(-1.,6.12323399573677E-17,0.));
#405=DIRECTION('',(-6.12323399573677E-17,-1.,0.));
#406=DIRECTION('',(1.,-6.12323399573677E-17,0.));
#407=DIRECTION('',(6.12323399573677E-17,1.,0.));
#408=DIRECTION('',(-1.,6.12323399573677E-17,0.));
#409=DIRECTION('',(6.12323399573677E-17,1.,0.));
#410=DIRECTION('',(-1.,6.12323399573677E-17,0.));
#411=DIRECTION('',(6.12323399573677E-17,1.,0.));
#412=DIRECTION('',(-1.,6.12323399573677E-17,0.));
#413=DIRECTION('',(6.12323399573677E-17,1.,0.));
#414=DIRECTION('',(-1.,6.12323399573677E-17,0.));
#415=DIRECTION('',(6.12323399573677E-17,1.,0.));
#416=DIRECTION('',(-1.,6.12323399573677E-17,0.));
#417=DIRECTION('',(6.12323399573677E-17,1.,0.));
#418=DIRECTION('',(-1.,6.12323399573677E-17,0.));
#419=DIRECTION('',(6.12323399573677E-17,1.,0.));
#420=DIRECTION('',(-1.,6.12323399573677E-17,0.));
#421=DIRECTION('',(6.12323399573677E-17,1.,0.));
#422=DIRECTION('',(-1.,6.12323399573677E-17,0.));
#423=DIRECTION('',(1.,0.,0.));
#424=DIRECTION('',(0.,0.,-1.));
#425=DIRECTION('',(1.,0.,0.));
#426=DIRECTION('',(0.,-1.,0.));
#427=DIRECTION('',(0.,0.,1.));
#428=DIRECTION('',(0.,-1.,0.));
#429=DIRECTION('',(0.,0.,1.));
#430=DIRECTION('',(0.,-1.,0.));
#431=DIRECTION('',(0.,0.,1.));
#432=DIRECTION('',(0.,-1.,0.));
#433=DIRECTION('',(0.,0.,1.));
#434=DIRECTION('',(0.,-1.,0.));
#435=DIRECTION('',(0.,0.,1.));
#436=DIRECTION('',(0.,-1.,0.));
#437=DIRECTION('',(0.,0.,1.));
#438=DIRECTION('',(0.,-1.,0.));
#439=DIRECTION('',(0.,0.,1.));
#440=DIRECTION('',(0.,-1.,0.));
#441=DIRECTION('',(0.,0.,1.));
#442=DIRECTION('',(0.,-1.,0.));
#443=DIRECTION('',(0.,0.,1.));
#444=DIRECTION('',(0.,-1.,0.));
#445=DIRECTION('',(0.,0.,1.));
#446=DIRECTION('',(0.,-1.,0.));
#447=DIRECTION('',(0.,0.,1.));
#448=DIRECTION('',(0.,-1.,0.));
#449=DIRECTION('',(0.,0.,1.));
#450=DIRECTION('',(0.,-1.,0.));
#451=DIRECTION('',(0.,0.,1.));
#452=DIRECTION('',(0.,-1.,0.));
#453=DIRECTION('',(0.,0.,1.));
#454=DIRECTION('',(0.,-1.,0.));
#455=CARTESIAN_POINT('',(0.,0.,0.));
#456=CARTESIAN_POINT('',(2.85751123908849E-16,4.66667,0.));
#457=CARTESIAN_POINT('',(3.67394039744205E-17,0.599999999999999,0.));
#458=CARTESIAN_POINT('',(-35.,0.600000000000001,0.));
#459=CARTESIAN_POINT('',(2.85751123908849E-16,4.66667,0.));
#460=CARTESIAN_POINT('',(-35.,4.66667,0.));
#461=CARTESIAN_POINT('',(0.,0.599999999999999,0.));
#462=CARTESIAN_POINT('',(1.92592994438724E-31,2.60208521396521E-15,0.));
#463=CARTESIAN_POINT('',(-34.4,4.70847770849866E-15,0.));
#464=CARTESIAN_POINT('',(-34.4,3.43844102673483E-15,0.));
#465=CARTESIAN_POINT('',(0.,0.,0.));
#466=CARTESIAN_POINT('',(-26.6,1.62878024286598E-15,0.));
#467=CARTESIAN_POINT('',(0.,0.599999999999999,0.));
#468=CARTESIAN_POINT('',(3.67394039744206E-17,0.6,0.));
#469=CARTESIAN_POINT('',(-26.,0.600000000000001,0.));
#470=CARTESIAN_POINT('',(2.85751123908849E-16,4.66667,0.));
#471=CARTESIAN_POINT('',(2.85751123908849E-16,4.66667,0.));
#472=CARTESIAN_POINT('',(-26.,4.66667,0.));
#473=CARTESIAN_POINT('',(-26.,4.66667,0.));
#474=CARTESIAN_POINT('',(2.85751123908849E-16,4.66667,0.));
#475=CARTESIAN_POINT('',(-26.8500839517378,4.66667,0.));
#476=CARTESIAN_POINT('',(0.,7.,0.));
#477=CARTESIAN_POINT('',(2.85751123908849E-16,4.66667,0.));
#478=CARTESIAN_POINT('',(-33.1499160482622,4.66667,0.));
#479=CARTESIAN_POINT('',(-33.1499160482622,4.66667,0.));
#480=CARTESIAN_POINT('',(0.,0.,0.));
#481=CARTESIAN_POINT('',(8.57252759403147E-16,14.,0.));
#482=CARTESIAN_POINT('',(5.71501635494298E-16,9.33333,0.));
#483=CARTESIAN_POINT('',(-35.,9.33333,0.));
#484=CARTESIAN_POINT('',(8.20513355428727E-16,13.4,0.));
#485=CARTESIAN_POINT('',(-35.,13.4,0.));
#486=CARTESIAN_POINT('',(-35.,9.33333,0.));
#487=CARTESIAN_POINT('',(5.71501635494298E-16,9.33333,0.));
#488=CARTESIAN_POINT('',(-33.1499160482622,9.33333,0.));
#489=CARTESIAN_POINT('',(0.,7.00000000000001,0.));
#490=CARTESIAN_POINT('',(5.71501635494298E-16,9.33333,0.));
#491=CARTESIAN_POINT('',(-26.8500839517378,9.33333000000001,0.));
#492=CARTESIAN_POINT('',(-26.8500839517378,9.33333,0.));
#493=CARTESIAN_POINT('',(5.71501635494298E-16,9.33333,0.));
#494=CARTESIAN_POINT('',(-25.,9.33333,0.));
#495=CARTESIAN_POINT('',(8.57252759403147E-16,14.,0.));
#496=CARTESIAN_POINT('',(8.20513355428727E-16,13.4,0.));
#497=CARTESIAN_POINT('',(-25.,13.4,0.));
#498=CARTESIAN_POINT('',(0.,13.4,0.));
#499=CARTESIAN_POINT('',(8.57252759403147E-16,14.,0.));
#500=CARTESIAN_POINT('',(-25.6,14.,0.));
#501=CARTESIAN_POINT('',(-25.6,14.,0.));
#502=CARTESIAN_POINT('',(8.57252759403147E-16,14.,0.));
#503=CARTESIAN_POINT('',(-34.4,14.,0.));
#504=CARTESIAN_POINT('',(0.,13.4,0.));
#505=CARTESIAN_POINT('',(0.,0.,0.));
#506=CARTESIAN_POINT('',(0.,0.,0.));
#507=CARTESIAN_POINT('',(-3.92,-2.40030772632881E-16,0.));
#508=CARTESIAN_POINT('',(-30.,7.,0.));
#509=CARTESIAN_POINT('',(-27.0290660370726,7.,13.0165121735267));
#510=CARTESIAN_POINT('',(-18.704694055762,7.,23.4549444740409));
#511=CARTESIAN_POINT('',(-6.67562801868943,7.,29.2478373654547));
#512=CARTESIAN_POINT('',(6.67562801868943,7.,29.2478373654547));
#513=CARTESIAN_POINT('',(18.704694055762,7.,23.4549444740409));
#514=CARTESIAN_POINT('',(27.0290660370726,7.,13.0165121735267));
#515=CARTESIAN_POINT('',(30.,7.,0.));
#516=CARTESIAN_POINT('',(27.0290660370726,7.,-13.0165121735267));
#517=CARTESIAN_POINT('',(18.704694055762,7.,-23.4549444740409));
#518=CARTESIAN_POINT('',(6.67562801868943,7.,-29.2478373654547));
#519=CARTESIAN_POINT('',(-6.67562801868943,7.,-29.2478373654547));
#520=CARTESIAN_POINT('',(-18.704694055762,7.,-23.4549444740409));
#521=CARTESIAN_POINT('',(-27.0290660370726,7.,-13.0165121735267));
#522=MECHANICAL_DESIGN_GEOMETRIC_PRESENTATION_REPRESENTATION('',(#272,#273,
#274),#523);
#523=(
GEOMETRIC_REPRESENTATION_CONTEXT(3)
GLOBAL_UNCERTAINTY_ASSIGNED_CONTEXT((#527))
GLOBAL_UNIT_ASSIGNED_CONTEXT((#533,#532,#531))
REPRESENTATION_CONTEXT('51110','TOP_LEVEL_ASSEMBLY_PART')
);
#524=(
GEOMETRIC_REPRESENTATION_CONTEXT(3)
GLOBAL_UNCERTAINTY_ASSIGNED_CONTEXT((#528))
GLOBAL_UNIT_ASSIGNED_CONTEXT((#533,#532,#531))
REPRESENTATION_CONTEXT('51110 Housing raceway disc','COMPONENT_PART')
);
#525=(
GEOMETRIC_REPRESENTATION_CONTEXT(3)
GLOBAL_UNCERTAINTY_ASSIGNED_CONTEXT((#529))
GLOBAL_UNIT_ASSIGNED_CONTEXT((#533,#532,#531))
REPRESENTATION_CONTEXT('51110 Shaft raceway disc','COMPONENT_PART')
);
#526=(
GEOMETRIC_REPRESENTATION_CONTEXT(3)
GLOBAL_UNCERTAINTY_ASSIGNED_CONTEXT((#530))
GLOBAL_UNIT_ASSIGNED_CONTEXT((#533,#532,#531))
REPRESENTATION_CONTEXT('51110 Ball','COMPONENT_PART')
);
#527=UNCERTAINTY_MEASURE_WITH_UNIT(LENGTH_MEASURE(0.005),#533,
'DISTANCE_ACCURACY_VALUE','Maximum Tolerance applied to model');
#528=UNCERTAINTY_MEASURE_WITH_UNIT(LENGTH_MEASURE(0.005),#533,
'DISTANCE_ACCURACY_VALUE','Maximum Tolerance applied to model');
#529=UNCERTAINTY_MEASURE_WITH_UNIT(LENGTH_MEASURE(0.005),#533,
'DISTANCE_ACCURACY_VALUE','Maximum Tolerance applied to model');
#530=UNCERTAINTY_MEASURE_WITH_UNIT(LENGTH_MEASURE(0.005),#533,
'DISTANCE_ACCURACY_VALUE','Maximum Tolerance applied to model');
#531=(
NAMED_UNIT(*)
SI_UNIT($,.STERADIAN.)
SOLID_ANGLE_UNIT()
);
#532=(
NAMED_UNIT(*)
PLANE_ANGLE_UNIT()
SI_UNIT($,.RADIAN.)
);
#533=(
LENGTH_UNIT()
NAMED_UNIT(*)
SI_UNIT(.MILLI.,.METRE.)
);
#534=PRODUCT_DEFINITION_SHAPE('','',#554);
#535=PRODUCT_DEFINITION_SHAPE('','',#555);
#536=PRODUCT_DEFINITION_SHAPE(' ','NAUO PRDDFN',#36);
#537=PRODUCT_DEFINITION_SHAPE('','',#556);
#538=PRODUCT_DEFINITION_SHAPE(' ','NAUO PRDDFN',#37);
#539=PRODUCT_DEFINITION_SHAPE('','',#557);
#540=PRODUCT_DEFINITION_SHAPE(' ','NAUO PRDDFN',#38);
#541=PRODUCT_DEFINITION_SHAPE(' ','NAUO PRDDFN',#39);
#542=PRODUCT_DEFINITION_SHAPE(' ','NAUO PRDDFN',#40);
#543=PRODUCT_DEFINITION_SHAPE(' ','NAUO PRDDFN',#41);
#544=PRODUCT_DEFINITION_SHAPE(' ','NAUO PRDDFN',#42);
#545=PRODUCT_DEFINITION_SHAPE(' ','NAUO PRDDFN',#43);
#546=PRODUCT_DEFINITION_SHAPE(' ','NAUO PRDDFN',#44);
#547=PRODUCT_DEFINITION_SHAPE(' ','NAUO PRDDFN',#45);
#548=PRODUCT_DEFINITION_SHAPE(' ','NAUO PRDDFN',#46);
#549=PRODUCT_DEFINITION_SHAPE(' ','NAUO PRDDFN',#47);
#550=PRODUCT_DEFINITION_SHAPE(' ','NAUO PRDDFN',#48);
#551=PRODUCT_DEFINITION_SHAPE(' ','NAUO PRDDFN',#49);
#552=PRODUCT_DEFINITION_SHAPE(' ','NAUO PRDDFN',#50);
#553=PRODUCT_DEFINITION_SHAPE(' ','NAUO PRDDFN',#51);
#554=PRODUCT_DEFINITION('','',#562,#558);
#555=PRODUCT_DEFINITION('','',#563,#559);
#556=PRODUCT_DEFINITION('','',#564,#560);
#557=PRODUCT_DEFINITION('','',#565,#561);
#558=PRODUCT_DEFINITION_CONTEXT('',#583,'design');
#559=PRODUCT_DEFINITION_CONTEXT('',#583,'design');
#560=PRODUCT_DEFINITION_CONTEXT('',#583,'design');
#561=PRODUCT_DEFINITION_CONTEXT('',#583,'design');
#562=PRODUCT_DEFINITION_FORMATION_WITH_SPECIFIED_SOURCE('','',#570,
 .NOT_KNOWN.);
#563=PRODUCT_DEFINITION_FORMATION_WITH_SPECIFIED_SOURCE('','',#571,
 .NOT_KNOWN.);
#564=PRODUCT_DEFINITION_FORMATION_WITH_SPECIFIED_SOURCE('','',#572,
 .NOT_KNOWN.);
#565=PRODUCT_DEFINITION_FORMATION_WITH_SPECIFIED_SOURCE('','',#573,
 .NOT_KNOWN.);
#566=PRODUCT_RELATED_PRODUCT_CATEGORY('','',(#570));
#567=PRODUCT_RELATED_PRODUCT_CATEGORY('','',(#571));
#568=PRODUCT_RELATED_PRODUCT_CATEGORY('','',(#572));
#569=PRODUCT_RELATED_PRODUCT_CATEGORY('','',(#573));
#570=PRODUCT('51110','51110','51110',(#578));
#571=PRODUCT('51110 Housing raceway disc','51110 Housing raceway disc',
'51110 Housing raceway disc',(#579));
#572=PRODUCT('51110 Shaft raceway disc','51110 Shaft raceway disc',
'51110 Shaft raceway disc',(#580));
#573=PRODUCT('51110 Ball','51110 Ball','51110 Ball',(#581));
#574=PRODUCT_CATEGORY('','');
#575=PRODUCT_CATEGORY('','');
#576=PRODUCT_CATEGORY('','');
#577=PRODUCT_CATEGORY('','');
#578=PRODUCT_CONTEXT('',#583,'mechanical');
#579=PRODUCT_CONTEXT('',#583,'mechanical');
#580=PRODUCT_CONTEXT('',#583,'mechanical');
#581=PRODUCT_CONTEXT('',#583,'mechanical');
#582=APPLICATION_PROTOCOL_DEFINITION('international standard',
'automotive_design',2010,#583);
#583=APPLICATION_CONTEXT(
'core data for automotive mechanical design processes');
ENDSEC;
END-ISO-10303-21;
