ISO-10303-21;
HEADER;
/* Generated by software containing ST-Developer
 * from STEP Tools, Inc. (www.steptools.com) 
 */
/* OPTION: using custom renumber hook */

FILE_DESCRIPTION(
/* description */ ('STEP AP214'),
/* implementation_level */ '2;1');

FILE_NAME(
/* name */ 'N314',
/* time_stamp */ '2025-09-04T15:27:14+02:00',
/* author */ ('License CC BY-ND 4.0'),
/* organization */ ('CADENAS'),
/* preprocessor_version */ 'ST-DEVELOPER v19.3',
/* originating_system */ 'PARTsolutions',
/* authorisation */ '  ');

FILE_SCHEMA (('AUTOMOTIVE_DESIGN {1 0 10303 214 3 1 1}'));
ENDSEC;

DATA;
#10=PROPERTY_DEFINITION_REPRESENTATION(#14,#12);
#11=PROPERTY_DEFINITION_REPRESENTATION(#15,#13);
#12=REPRESENTATION('',(#16),#567);
#13=REPRESENTATION('',(#17),#567);
#14=PROPERTY_DEFINITION('pmi validation property','',#578);
#15=PROPERTY_DEFINITION('pmi validation property','',#578);
#16=VALUE_REPRESENTATION_ITEM('number of annotations',COUNT_MEASURE(0.));
#17=VALUE_REPRESENTATION_ITEM('number of views',COUNT_MEASURE(0.));
#18=CONICAL_SURFACE('',#357,67.3673,0.25550847397746);
#19=CONICAL_SURFACE('',#361,65.,0.25550847397746);
#20=CONTEXT_DEPENDENT_SHAPE_REPRESENTATION(#44,#580);
#21=CONTEXT_DEPENDENT_SHAPE_REPRESENTATION(#45,#582);
#22=CONTEXT_DEPENDENT_SHAPE_REPRESENTATION(#46,#584);
#23=CONTEXT_DEPENDENT_SHAPE_REPRESENTATION(#47,#585);
#24=CONTEXT_DEPENDENT_SHAPE_REPRESENTATION(#48,#586);
#25=CONTEXT_DEPENDENT_SHAPE_REPRESENTATION(#49,#587);
#26=CONTEXT_DEPENDENT_SHAPE_REPRESENTATION(#50,#588);
#27=CONTEXT_DEPENDENT_SHAPE_REPRESENTATION(#51,#589);
#28=CONTEXT_DEPENDENT_SHAPE_REPRESENTATION(#52,#590);
#29=CONTEXT_DEPENDENT_SHAPE_REPRESENTATION(#53,#591);
#30=CONTEXT_DEPENDENT_SHAPE_REPRESENTATION(#54,#592);
#31=CONTEXT_DEPENDENT_SHAPE_REPRESENTATION(#55,#593);
#32=NEXT_ASSEMBLY_USAGE_OCCURRENCE('NAUO1','N314 Inner ring',
'N314 Inner ring',#594,#595,'');
#33=NEXT_ASSEMBLY_USAGE_OCCURRENCE('NAUO2','N314 Outer ring',
'N314 Outer ring',#594,#596,'');
#34=NEXT_ASSEMBLY_USAGE_OCCURRENCE('NAUO3','N314 Roller','N314 Roller',
#594,#597,'');
#35=NEXT_ASSEMBLY_USAGE_OCCURRENCE('NAUO4','N314 Roller','N314 Roller',
#594,#597,'');
#36=NEXT_ASSEMBLY_USAGE_OCCURRENCE('NAUO5','N314 Roller','N314 Roller',
#594,#597,'');
#37=NEXT_ASSEMBLY_USAGE_OCCURRENCE('NAUO6','N314 Roller','N314 Roller',
#594,#597,'');
#38=NEXT_ASSEMBLY_USAGE_OCCURRENCE('NAUO7','N314 Roller','N314 Roller',
#594,#597,'');
#39=NEXT_ASSEMBLY_USAGE_OCCURRENCE('NAUO8','N314 Roller','N314 Roller',
#594,#597,'');
#40=NEXT_ASSEMBLY_USAGE_OCCURRENCE('NAUO9','N314 Roller','N314 Roller',
#594,#597,'');
#41=NEXT_ASSEMBLY_USAGE_OCCURRENCE('NAUO10','N314 Roller','N314 Roller',
#594,#597,'');
#42=NEXT_ASSEMBLY_USAGE_OCCURRENCE('NAUO11','N314 Roller','N314 Roller',
#594,#597,'');
#43=NEXT_ASSEMBLY_USAGE_OCCURRENCE('NAUO12','N314 Roller','N314 Roller',
#594,#597,'');
#44=(
REPRESENTATION_RELATIONSHIP(' ',' ',#327,#326)
REPRESENTATION_RELATIONSHIP_WITH_TRANSFORMATION(#56)
SHAPE_REPRESENTATION_RELATIONSHIP()
);
#45=(
REPRESENTATION_RELATIONSHIP(' ',' ',#328,#326)
REPRESENTATION_RELATIONSHIP_WITH_TRANSFORMATION(#57)
SHAPE_REPRESENTATION_RELATIONSHIP()
);
#46=(
REPRESENTATION_RELATIONSHIP(' ',' ',#329,#326)
REPRESENTATION_RELATIONSHIP_WITH_TRANSFORMATION(#58)
SHAPE_REPRESENTATION_RELATIONSHIP()
);
#47=(
REPRESENTATION_RELATIONSHIP(' ',' ',#329,#326)
REPRESENTATION_RELATIONSHIP_WITH_TRANSFORMATION(#59)
SHAPE_REPRESENTATION_RELATIONSHIP()
);
#48=(
REPRESENTATION_RELATIONSHIP(' ',' ',#329,#326)
REPRESENTATION_RELATIONSHIP_WITH_TRANSFORMATION(#60)
SHAPE_REPRESENTATION_RELATIONSHIP()
);
#49=(
REPRESENTATION_RELATIONSHIP(' ',' ',#329,#326)
REPRESENTATION_RELATIONSHIP_WITH_TRANSFORMATION(#61)
SHAPE_REPRESENTATION_RELATIONSHIP()
);
#50=(
REPRESENTATION_RELATIONSHIP(' ',' ',#329,#326)
REPRESENTATION_RELATIONSHIP_WITH_TRANSFORMATION(#62)
SHAPE_REPRESENTATION_RELATIONSHIP()
);
#51=(
REPRESENTATION_RELATIONSHIP(' ',' ',#329,#326)
REPRESENTATION_RELATIONSHIP_WITH_TRANSFORMATION(#63)
SHAPE_REPRESENTATION_RELATIONSHIP()
);
#52=(
REPRESENTATION_RELATIONSHIP(' ',' ',#329,#326)
REPRESENTATION_RELATIONSHIP_WITH_TRANSFORMATION(#64)
SHAPE_REPRESENTATION_RELATIONSHIP()
);
#53=(
REPRESENTATION_RELATIONSHIP(' ',' ',#329,#326)
REPRESENTATION_RELATIONSHIP_WITH_TRANSFORMATION(#65)
SHAPE_REPRESENTATION_RELATIONSHIP()
);
#54=(
REPRESENTATION_RELATIONSHIP(' ',' ',#329,#326)
REPRESENTATION_RELATIONSHIP_WITH_TRANSFORMATION(#66)
SHAPE_REPRESENTATION_RELATIONSHIP()
);
#55=(
REPRESENTATION_RELATIONSHIP(' ',' ',#329,#326)
REPRESENTATION_RELATIONSHIP_WITH_TRANSFORMATION(#67)
SHAPE_REPRESENTATION_RELATIONSHIP()
);
#56=ITEM_DEFINED_TRANSFORMATION(' ',' ',#330,#351);
#57=ITEM_DEFINED_TRANSFORMATION(' ',' ',#330,#368);
#58=ITEM_DEFINED_TRANSFORMATION(' ',' ',#330,#374);
#59=ITEM_DEFINED_TRANSFORMATION(' ',' ',#330,#375);
#60=ITEM_DEFINED_TRANSFORMATION(' ',' ',#330,#376);
#61=ITEM_DEFINED_TRANSFORMATION(' ',' ',#330,#377);
#62=ITEM_DEFINED_TRANSFORMATION(' ',' ',#330,#378);
#63=ITEM_DEFINED_TRANSFORMATION(' ',' ',#330,#379);
#64=ITEM_DEFINED_TRANSFORMATION(' ',' ',#330,#380);
#65=ITEM_DEFINED_TRANSFORMATION(' ',' ',#330,#381);
#66=ITEM_DEFINED_TRANSFORMATION(' ',' ',#330,#382);
#67=ITEM_DEFINED_TRANSFORMATION(' ',' ',#330,#383);
#68=SHAPE_REPRESENTATION_RELATIONSHIP('','',#327,#71);
#69=SHAPE_REPRESENTATION_RELATIONSHIP('','',#328,#72);
#70=SHAPE_REPRESENTATION_RELATIONSHIP('','',#329,#73);
#71=ADVANCED_BREP_SHAPE_REPRESENTATION('',(#319),#568);
#72=ADVANCED_BREP_SHAPE_REPRESENTATION('',(#320),#569);
#73=ADVANCED_BREP_SHAPE_REPRESENTATION('',(#321),#570);
#74=CYLINDRICAL_SURFACE('',#336,35.);
#75=CYLINDRICAL_SURFACE('',#342,49.);
#76=CYLINDRICAL_SURFACE('',#346,45.);
#77=CYLINDRICAL_SURFACE('',#350,49.);
#78=CYLINDRICAL_SURFACE('',#359,65.);
#79=CYLINDRICAL_SURFACE('',#367,75.);
#80=CYLINDRICAL_SURFACE('',#371,9.999);
#81=TOROIDAL_SURFACE('',#334,37.1,2.09999999999998);
#82=TOROIDAL_SURFACE('',#338,37.1,2.09999999999998);
#83=TOROIDAL_SURFACE('',#352,72.9,2.09999999999998);
#84=TOROIDAL_SURFACE('',#365,72.9,2.09999999999998);
#85=ORIENTED_EDGE('',*,*,#125,.T.);
#86=ORIENTED_EDGE('',*,*,#126,.F.);
#87=ORIENTED_EDGE('',*,*,#127,.T.);
#88=ORIENTED_EDGE('',*,*,#125,.F.);
#89=ORIENTED_EDGE('',*,*,#128,.T.);
#90=ORIENTED_EDGE('',*,*,#127,.F.);
#91=ORIENTED_EDGE('',*,*,#129,.T.);
#92=ORIENTED_EDGE('',*,*,#128,.F.);
#93=ORIENTED_EDGE('',*,*,#130,.T.);
#94=ORIENTED_EDGE('',*,*,#129,.F.);
#95=ORIENTED_EDGE('',*,*,#131,.T.);
#96=ORIENTED_EDGE('',*,*,#130,.F.);
#97=ORIENTED_EDGE('',*,*,#132,.T.);
#98=ORIENTED_EDGE('',*,*,#131,.F.);
#99=ORIENTED_EDGE('',*,*,#133,.T.);
#100=ORIENTED_EDGE('',*,*,#132,.F.);
#101=ORIENTED_EDGE('',*,*,#134,.T.);
#102=ORIENTED_EDGE('',*,*,#133,.F.);
#103=ORIENTED_EDGE('',*,*,#126,.T.);
#104=ORIENTED_EDGE('',*,*,#134,.F.);
#105=ORIENTED_EDGE('',*,*,#135,.T.);
#106=ORIENTED_EDGE('',*,*,#136,.F.);
#107=ORIENTED_EDGE('',*,*,#137,.T.);
#108=ORIENTED_EDGE('',*,*,#135,.F.);
#109=ORIENTED_EDGE('',*,*,#138,.T.);
#110=ORIENTED_EDGE('',*,*,#137,.F.);
#111=ORIENTED_EDGE('',*,*,#139,.T.);
#112=ORIENTED_EDGE('',*,*,#138,.F.);
#113=ORIENTED_EDGE('',*,*,#140,.T.);
#114=ORIENTED_EDGE('',*,*,#139,.F.);
#115=ORIENTED_EDGE('',*,*,#141,.T.);
#116=ORIENTED_EDGE('',*,*,#140,.F.);
#117=ORIENTED_EDGE('',*,*,#142,.T.);
#118=ORIENTED_EDGE('',*,*,#141,.F.);
#119=ORIENTED_EDGE('',*,*,#136,.T.);
#120=ORIENTED_EDGE('',*,*,#142,.F.);
#121=ORIENTED_EDGE('',*,*,#143,.F.);
#122=ORIENTED_EDGE('',*,*,#144,.F.);
#123=ORIENTED_EDGE('',*,*,#143,.T.);
#124=ORIENTED_EDGE('',*,*,#144,.T.);
#125=EDGE_CURVE('',#145,#145,#165,.T.);
#126=EDGE_CURVE('',#146,#146,#166,.T.);
#127=EDGE_CURVE('',#147,#147,#167,.T.);
#128=EDGE_CURVE('',#148,#148,#168,.T.);
#129=EDGE_CURVE('',#149,#149,#169,.T.);
#130=EDGE_CURVE('',#150,#150,#170,.T.);
#131=EDGE_CURVE('',#151,#151,#171,.T.);
#132=EDGE_CURVE('',#152,#152,#172,.T.);
#133=EDGE_CURVE('',#153,#153,#173,.T.);
#134=EDGE_CURVE('',#154,#154,#174,.T.);
#135=EDGE_CURVE('',#155,#155,#175,.T.);
#136=EDGE_CURVE('',#156,#156,#176,.T.);
#137=EDGE_CURVE('',#157,#157,#177,.T.);
#138=EDGE_CURVE('',#158,#158,#178,.T.);
#139=EDGE_CURVE('',#159,#159,#179,.T.);
#140=EDGE_CURVE('',#160,#160,#180,.T.);
#141=EDGE_CURVE('',#161,#161,#181,.T.);
#142=EDGE_CURVE('',#162,#162,#182,.T.);
#143=EDGE_CURVE('',#163,#163,#183,.T.);
#144=EDGE_CURVE('',#164,#164,#184,.T.);
#145=VERTEX_POINT('',#495);
#146=VERTEX_POINT('',#497);
#147=VERTEX_POINT('',#500);
#148=VERTEX_POINT('',#503);
#149=VERTEX_POINT('',#506);
#150=VERTEX_POINT('',#509);
#151=VERTEX_POINT('',#512);
#152=VERTEX_POINT('',#515);
#153=VERTEX_POINT('',#518);
#154=VERTEX_POINT('',#521);
#155=VERTEX_POINT('',#526);
#156=VERTEX_POINT('',#528);
#157=VERTEX_POINT('',#531);
#158=VERTEX_POINT('',#534);
#159=VERTEX_POINT('',#537);
#160=VERTEX_POINT('',#540);
#161=VERTEX_POINT('',#543);
#162=VERTEX_POINT('',#546);
#163=VERTEX_POINT('',#551);
#164=VERTEX_POINT('',#554);
#165=CIRCLE('',#332,37.1);
#166=CIRCLE('',#333,49.);
#167=CIRCLE('',#335,35.);
#168=CIRCLE('',#337,35.);
#169=CIRCLE('',#339,37.1);
#170=CIRCLE('',#341,49.);
#171=CIRCLE('',#343,49.);
#172=CIRCLE('',#345,45.);
#173=CIRCLE('',#347,45.);
#174=CIRCLE('',#349,49.);
#175=CIRCLE('',#353,72.9);
#176=CIRCLE('',#354,75.);
#177=CIRCLE('',#356,67.3673);
#178=CIRCLE('',#358,65.);
#179=CIRCLE('',#360,65.);
#180=CIRCLE('',#362,67.3673);
#181=CIRCLE('',#364,72.9);
#182=CIRCLE('',#366,75.);
#183=CIRCLE('',#370,9.999);
#184=CIRCLE('',#372,9.999);
#185=EDGE_LOOP('',(#85));
#186=EDGE_LOOP('',(#86));
#187=EDGE_LOOP('',(#87));
#188=EDGE_LOOP('',(#88));
#189=EDGE_LOOP('',(#89));
#190=EDGE_LOOP('',(#90));
#191=EDGE_LOOP('',(#91));
#192=EDGE_LOOP('',(#92));
#193=EDGE_LOOP('',(#93));
#194=EDGE_LOOP('',(#94));
#195=EDGE_LOOP('',(#95));
#196=EDGE_LOOP('',(#96));
#197=EDGE_LOOP('',(#97));
#198=EDGE_LOOP('',(#98));
#199=EDGE_LOOP('',(#99));
#200=EDGE_LOOP('',(#100));
#201=EDGE_LOOP('',(#101));
#202=EDGE_LOOP('',(#102));
#203=EDGE_LOOP('',(#103));
#204=EDGE_LOOP('',(#104));
#205=EDGE_LOOP('',(#105));
#206=EDGE_LOOP('',(#106));
#207=EDGE_LOOP('',(#107));
#208=EDGE_LOOP('',(#108));
#209=EDGE_LOOP('',(#109));
#210=EDGE_LOOP('',(#110));
#211=EDGE_LOOP('',(#111));
#212=EDGE_LOOP('',(#112));
#213=EDGE_LOOP('',(#113));
#214=EDGE_LOOP('',(#114));
#215=EDGE_LOOP('',(#115));
#216=EDGE_LOOP('',(#116));
#217=EDGE_LOOP('',(#117));
#218=EDGE_LOOP('',(#118));
#219=EDGE_LOOP('',(#119));
#220=EDGE_LOOP('',(#120));
#221=EDGE_LOOP('',(#121));
#222=EDGE_LOOP('',(#122));
#223=EDGE_LOOP('',(#123));
#224=EDGE_LOOP('',(#124));
#225=FACE_BOUND('',#185,.T.);
#226=FACE_BOUND('',#186,.T.);
#227=FACE_BOUND('',#187,.T.);
#228=FACE_BOUND('',#188,.T.);
#229=FACE_BOUND('',#189,.T.);
#230=FACE_BOUND('',#190,.T.);
#231=FACE_BOUND('',#191,.T.);
#232=FACE_BOUND('',#192,.T.);
#233=FACE_BOUND('',#193,.T.);
#234=FACE_BOUND('',#194,.T.);
#235=FACE_BOUND('',#195,.T.);
#236=FACE_BOUND('',#196,.T.);
#237=FACE_BOUND('',#197,.T.);
#238=FACE_BOUND('',#198,.T.);
#239=FACE_BOUND('',#199,.T.);
#240=FACE_BOUND('',#200,.T.);
#241=FACE_BOUND('',#201,.T.);
#242=FACE_BOUND('',#202,.T.);
#243=FACE_BOUND('',#203,.T.);
#244=FACE_BOUND('',#204,.T.);
#245=FACE_BOUND('',#205,.T.);
#246=FACE_BOUND('',#206,.T.);
#247=FACE_BOUND('',#207,.T.);
#248=FACE_BOUND('',#208,.T.);
#249=FACE_BOUND('',#209,.T.);
#250=FACE_BOUND('',#210,.T.);
#251=FACE_BOUND('',#211,.T.);
#252=FACE_BOUND('',#212,.T.);
#253=FACE_BOUND('',#213,.T.);
#254=FACE_BOUND('',#214,.T.);
#255=FACE_BOUND('',#215,.T.);
#256=FACE_BOUND('',#216,.T.);
#257=FACE_BOUND('',#217,.T.);
#258=FACE_BOUND('',#218,.T.);
#259=FACE_BOUND('',#219,.T.);
#260=FACE_BOUND('',#220,.T.);
#261=FACE_BOUND('',#221,.T.);
#262=FACE_BOUND('',#222,.T.);
#263=FACE_BOUND('',#223,.T.);
#264=FACE_BOUND('',#224,.T.);
#265=PLANE('',#331);
#266=PLANE('',#340);
#267=PLANE('',#344);
#268=PLANE('',#348);
#269=PLANE('',#355);
#270=PLANE('',#363);
#271=PLANE('',#369);
#272=PLANE('',#373);
#273=ADVANCED_FACE('',(#225,#226),#265,.T.);
#274=ADVANCED_FACE('',(#227,#228),#81,.T.);
#275=ADVANCED_FACE('',(#229,#230),#74,.F.);
#276=ADVANCED_FACE('',(#231,#232),#82,.T.);
#277=ADVANCED_FACE('',(#233,#234),#266,.T.);
#278=ADVANCED_FACE('',(#235,#236),#75,.T.);
#279=ADVANCED_FACE('',(#237,#238),#267,.T.);
#280=ADVANCED_FACE('',(#239,#240),#76,.T.);
#281=ADVANCED_FACE('',(#241,#242),#268,.T.);
#282=ADVANCED_FACE('',(#243,#244),#77,.T.);
#283=ADVANCED_FACE('',(#245,#246),#83,.T.);
#284=ADVANCED_FACE('',(#247,#248),#269,.T.);
#285=ADVANCED_FACE('',(#249,#250),#18,.F.);
#286=ADVANCED_FACE('',(#251,#252),#78,.F.);
#287=ADVANCED_FACE('',(#253,#254),#19,.F.);
#288=ADVANCED_FACE('',(#255,#256),#270,.T.);
#289=ADVANCED_FACE('',(#257,#258),#84,.T.);
#290=ADVANCED_FACE('',(#259,#260),#79,.T.);
#291=ADVANCED_FACE('',(#261),#271,.F.);
#292=ADVANCED_FACE('',(#262,#263),#80,.T.);
#293=ADVANCED_FACE('',(#264),#272,.F.);
#294=CLOSED_SHELL('',(#273,#274,#275,#276,#277,#278,#279,#280,#281,#282));
#295=CLOSED_SHELL('',(#283,#284,#285,#286,#287,#288,#289,#290));
#296=CLOSED_SHELL('',(#291,#292,#293));
#297=STYLED_ITEM('',(#300),#319);
#298=STYLED_ITEM('',(#301),#320);
#299=STYLED_ITEM('',(#302),#321);
#300=PRESENTATION_STYLE_ASSIGNMENT((#303));
#301=PRESENTATION_STYLE_ASSIGNMENT((#304));
#302=PRESENTATION_STYLE_ASSIGNMENT((#305));
#303=SURFACE_STYLE_USAGE(.BOTH.,#306);
#304=SURFACE_STYLE_USAGE(.BOTH.,#307);
#305=SURFACE_STYLE_USAGE(.BOTH.,#308);
#306=SURFACE_SIDE_STYLE('',(#309));
#307=SURFACE_SIDE_STYLE('',(#310));
#308=SURFACE_SIDE_STYLE('',(#311));
#309=SURFACE_STYLE_FILL_AREA(#312);
#310=SURFACE_STYLE_FILL_AREA(#313);
#311=SURFACE_STYLE_FILL_AREA(#314);
#312=FILL_AREA_STYLE('',(#315));
#313=FILL_AREA_STYLE('',(#316));
#314=FILL_AREA_STYLE('',(#317));
#315=FILL_AREA_STYLE_COLOUR('',#318);
#316=FILL_AREA_STYLE_COLOUR('',#318);
#317=FILL_AREA_STYLE_COLOUR('',#318);
#318=COLOUR_RGB('',0.689999997615814,0.689999997615814,0.689999997615814);
#319=MANIFOLD_SOLID_BREP('N314 Inner ring',#294);
#320=MANIFOLD_SOLID_BREP('N314 Outer ring',#295);
#321=MANIFOLD_SOLID_BREP('N314 Roller',#296);
#322=SHAPE_DEFINITION_REPRESENTATION(#578,#326);
#323=SHAPE_DEFINITION_REPRESENTATION(#579,#327);
#324=SHAPE_DEFINITION_REPRESENTATION(#581,#328);
#325=SHAPE_DEFINITION_REPRESENTATION(#583,#329);
#326=SHAPE_REPRESENTATION('N314',(#330,#351,#368,#374,#375,#376,#377,#378,
#379,#380,#381,#382,#383),#567);
#327=SHAPE_REPRESENTATION('N314 Inner ring',(#330),#568);
#328=SHAPE_REPRESENTATION('N314 Outer ring',(#330),#569);
#329=SHAPE_REPRESENTATION('N314 Roller',(#330),#570);
#330=AXIS2_PLACEMENT_3D('',#492,#384,#385);
#331=AXIS2_PLACEMENT_3D('',#493,#386,#387);
#332=AXIS2_PLACEMENT_3D('',#494,#388,#389);
#333=AXIS2_PLACEMENT_3D('',#496,#390,#391);
#334=AXIS2_PLACEMENT_3D('',#498,#392,#393);
#335=AXIS2_PLACEMENT_3D('',#499,#394,#395);
#336=AXIS2_PLACEMENT_3D('',#501,#396,#397);
#337=AXIS2_PLACEMENT_3D('',#502,#398,#399);
#338=AXIS2_PLACEMENT_3D('',#504,#400,#401);
#339=AXIS2_PLACEMENT_3D('',#505,#402,#403);
#340=AXIS2_PLACEMENT_3D('',#507,#404,#405);
#341=AXIS2_PLACEMENT_3D('',#508,#406,#407);
#342=AXIS2_PLACEMENT_3D('',#510,#408,#409);
#343=AXIS2_PLACEMENT_3D('',#511,#410,#411);
#344=AXIS2_PLACEMENT_3D('',#513,#412,#413);
#345=AXIS2_PLACEMENT_3D('',#514,#414,#415);
#346=AXIS2_PLACEMENT_3D('',#516,#416,#417);
#347=AXIS2_PLACEMENT_3D('',#517,#418,#419);
#348=AXIS2_PLACEMENT_3D('',#519,#420,#421);
#349=AXIS2_PLACEMENT_3D('',#520,#422,#423);
#350=AXIS2_PLACEMENT_3D('',#522,#424,#425);
#351=AXIS2_PLACEMENT_3D('',#523,#426,#427);
#352=AXIS2_PLACEMENT_3D('',#524,#428,#429);
#353=AXIS2_PLACEMENT_3D('',#525,#430,#431);
#354=AXIS2_PLACEMENT_3D('',#527,#432,#433);
#355=AXIS2_PLACEMENT_3D('',#529,#434,#435);
#356=AXIS2_PLACEMENT_3D('',#530,#436,#437);
#357=AXIS2_PLACEMENT_3D('',#532,#438,#439);
#358=AXIS2_PLACEMENT_3D('',#533,#440,#441);
#359=AXIS2_PLACEMENT_3D('',#535,#442,#443);
#360=AXIS2_PLACEMENT_3D('',#536,#444,#445);
#361=AXIS2_PLACEMENT_3D('',#538,#446,#447);
#362=AXIS2_PLACEMENT_3D('',#539,#448,#449);
#363=AXIS2_PLACEMENT_3D('',#541,#450,#451);
#364=AXIS2_PLACEMENT_3D('',#542,#452,#453);
#365=AXIS2_PLACEMENT_3D('',#544,#454,#455);
#366=AXIS2_PLACEMENT_3D('',#545,#456,#457);
#367=AXIS2_PLACEMENT_3D('',#547,#458,#459);
#368=AXIS2_PLACEMENT_3D('',#548,#460,#461);
#369=AXIS2_PLACEMENT_3D('',#549,#462,#463);
#370=AXIS2_PLACEMENT_3D('',#550,#464,#465);
#371=AXIS2_PLACEMENT_3D('',#552,#466,#467);
#372=AXIS2_PLACEMENT_3D('',#553,#468,#469);
#373=AXIS2_PLACEMENT_3D('',#555,#470,#471);
#374=AXIS2_PLACEMENT_3D('',#556,#472,#473);
#375=AXIS2_PLACEMENT_3D('',#557,#474,#475);
#376=AXIS2_PLACEMENT_3D('',#558,#476,#477);
#377=AXIS2_PLACEMENT_3D('',#559,#478,#479);
#378=AXIS2_PLACEMENT_3D('',#560,#480,#481);
#379=AXIS2_PLACEMENT_3D('',#561,#482,#483);
#380=AXIS2_PLACEMENT_3D('',#562,#484,#485);
#381=AXIS2_PLACEMENT_3D('',#563,#486,#487);
#382=AXIS2_PLACEMENT_3D('',#564,#488,#489);
#383=AXIS2_PLACEMENT_3D('',#565,#490,#491);
#384=DIRECTION('',(0.,0.,1.));
#385=DIRECTION('',(1.,0.,0.));
#386=DIRECTION('',(-1.,0.,0.));
#387=DIRECTION('',(0.,0.,1.));
#388=DIRECTION('',(1.,0.,0.));
#389=DIRECTION('',(0.,0.,-1.));
#390=DIRECTION('',(1.,0.,0.));
#391=DIRECTION('',(0.,0.,-1.));
#392=DIRECTION('',(1.,0.,0.));
#393=DIRECTION('',(0.,0.,-1.));
#394=DIRECTION('',(1.,0.,0.));
#395=DIRECTION('',(0.,0.,-1.));
#396=DIRECTION('',(1.,0.,0.));
#397=DIRECTION('',(0.,0.,-1.));
#398=DIRECTION('',(1.,0.,0.));
#399=DIRECTION('',(0.,0.,-1.));
#400=DIRECTION('',(1.,0.,0.));
#401=DIRECTION('',(0.,0.,-1.));
#402=DIRECTION('',(1.,0.,0.));
#403=DIRECTION('',(0.,0.,-1.));
#404=DIRECTION('',(1.,0.,0.));
#405=DIRECTION('',(0.,0.,-1.));
#406=DIRECTION('',(1.,0.,0.));
#407=DIRECTION('',(0.,0.,-1.));
#408=DIRECTION('',(1.,0.,0.));
#409=DIRECTION('',(0.,0.,-1.));
#410=DIRECTION('',(1.,0.,0.));
#411=DIRECTION('',(0.,0.,-1.));
#412=DIRECTION('',(-1.,0.,0.));
#413=DIRECTION('',(0.,0.,1.));
#414=DIRECTION('',(1.,0.,0.));
#415=DIRECTION('',(0.,0.,-1.));
#416=DIRECTION('',(1.,0.,0.));
#417=DIRECTION('',(0.,0.,-1.));
#418=DIRECTION('',(1.,0.,0.));
#419=DIRECTION('',(0.,0.,-1.));
#420=DIRECTION('',(1.,0.,0.));
#421=DIRECTION('',(0.,0.,-1.));
#422=DIRECTION('',(1.,0.,0.));
#423=DIRECTION('',(0.,0.,-1.));
#424=DIRECTION('',(1.,0.,0.));
#425=DIRECTION('',(0.,0.,-1.));
#426=DIRECTION('',(0.,0.,1.));
#427=DIRECTION('',(1.,0.,0.));
#428=DIRECTION('',(1.,0.,0.));
#429=DIRECTION('',(0.,0.,-1.));
#430=DIRECTION('',(1.,0.,0.));
#431=DIRECTION('',(0.,0.,-1.));
#432=DIRECTION('',(1.,0.,0.));
#433=DIRECTION('',(0.,0.,-1.));
#434=DIRECTION('',(-1.,0.,0.));
#435=DIRECTION('',(0.,0.,1.));
#436=DIRECTION('',(1.,0.,0.));
#437=DIRECTION('',(0.,0.,-1.));
#438=DIRECTION('',(-1.,0.,0.));
#439=DIRECTION('',(0.,0.,1.));
#440=DIRECTION('',(1.,0.,0.));
#441=DIRECTION('',(0.,0.,-1.));
#442=DIRECTION('',(1.,0.,0.));
#443=DIRECTION('',(0.,0.,-1.));
#444=DIRECTION('',(1.,0.,0.));
#445=DIRECTION('',(0.,0.,-1.));
#446=DIRECTION('',(1.,0.,0.));
#447=DIRECTION('',(0.,0.,-1.));
#448=DIRECTION('',(1.,0.,0.));
#449=DIRECTION('',(0.,0.,-1.));
#450=DIRECTION('',(1.,0.,0.));
#451=DIRECTION('',(0.,0.,-1.));
#452=DIRECTION('',(1.,0.,0.));
#453=DIRECTION('',(0.,0.,-1.));
#454=DIRECTION('',(1.,0.,0.));
#455=DIRECTION('',(0.,0.,-1.));
#456=DIRECTION('',(1.,0.,0.));
#457=DIRECTION('',(0.,0.,-1.));
#458=DIRECTION('',(1.,0.,0.));
#459=DIRECTION('',(0.,0.,-1.));
#460=DIRECTION('',(0.,0.,1.));
#461=DIRECTION('',(1.,0.,0.));
#462=DIRECTION('',(1.,0.,0.));
#463=DIRECTION('',(0.,0.,-1.));
#464=DIRECTION('',(1.,0.,0.));
#465=DIRECTION('',(0.,0.,-1.));
#466=DIRECTION('',(1.,0.,0.));
#467=DIRECTION('',(0.,0.,-1.));
#468=DIRECTION('',(1.,0.,0.));
#469=DIRECTION('',(0.,0.,-1.));
#470=DIRECTION('',(-1.,0.,0.));
#471=DIRECTION('',(0.,0.,1.));
#472=DIRECTION('',(0.,0.,1.));
#473=DIRECTION('',(1.,0.,0.));
#474=DIRECTION('',(0.,0.,1.));
#475=DIRECTION('',(1.,0.,0.));
#476=DIRECTION('',(0.,0.,1.));
#477=DIRECTION('',(1.,0.,0.));
#478=DIRECTION('',(0.,0.,1.));
#479=DIRECTION('',(1.,0.,0.));
#480=DIRECTION('',(0.,0.,1.));
#481=DIRECTION('',(1.,0.,0.));
#482=DIRECTION('',(0.,0.,1.));
#483=DIRECTION('',(1.,0.,0.));
#484=DIRECTION('',(0.,0.,1.));
#485=DIRECTION('',(1.,0.,0.));
#486=DIRECTION('',(0.,0.,1.));
#487=DIRECTION('',(1.,0.,0.));
#488=DIRECTION('',(0.,0.,1.));
#489=DIRECTION('',(1.,0.,0.));
#490=DIRECTION('',(0.,0.,1.));
#491=DIRECTION('',(1.,0.,0.));
#492=CARTESIAN_POINT('',(0.,0.,0.));
#493=CARTESIAN_POINT('',(0.,49.,0.));
#494=CARTESIAN_POINT('',(0.,0.,0.));
#495=CARTESIAN_POINT('',(0.,0.,-37.1));
#496=CARTESIAN_POINT('',(0.,0.,0.));
#497=CARTESIAN_POINT('',(0.,0.,-49.));
#498=CARTESIAN_POINT('',(2.09999999999998,0.,0.));
#499=CARTESIAN_POINT('',(2.1,0.,0.));
#500=CARTESIAN_POINT('',(2.1,0.,-35.));
#501=CARTESIAN_POINT('',(35.,0.,0.));
#502=CARTESIAN_POINT('',(32.9,0.,0.));
#503=CARTESIAN_POINT('',(32.9,0.,-35.));
#504=CARTESIAN_POINT('',(32.9,0.,0.));
#505=CARTESIAN_POINT('',(35.,0.,0.));
#506=CARTESIAN_POINT('',(35.,0.,-37.1));
#507=CARTESIAN_POINT('',(35.,37.1,0.));
#508=CARTESIAN_POINT('',(35.,0.,0.));
#509=CARTESIAN_POINT('',(35.,0.,-49.));
#510=CARTESIAN_POINT('',(35.,0.,0.));
#511=CARTESIAN_POINT('',(25.93745,0.,0.));
#512=CARTESIAN_POINT('',(25.93745,0.,-49.));
#513=CARTESIAN_POINT('',(25.93745,49.,0.));
#514=CARTESIAN_POINT('',(25.93745,0.,0.));
#515=CARTESIAN_POINT('',(25.93745,0.,-45.));
#516=CARTESIAN_POINT('',(35.,0.,0.));
#517=CARTESIAN_POINT('',(9.06255,0.,0.));
#518=CARTESIAN_POINT('',(9.06255,0.,-45.));
#519=CARTESIAN_POINT('',(9.06255,45.,0.));
#520=CARTESIAN_POINT('',(9.06255,0.,0.));
#521=CARTESIAN_POINT('',(9.06255,0.,-49.));
#522=CARTESIAN_POINT('',(35.,0.,0.));
#523=CARTESIAN_POINT('',(0.,0.,0.));
#524=CARTESIAN_POINT('',(2.09999999999998,0.,0.));
#525=CARTESIAN_POINT('',(-6.93889390390723E-15,0.,0.));
#526=CARTESIAN_POINT('',(-6.93889390390723E-15,0.,-72.9));
#527=CARTESIAN_POINT('',(2.09999999999999,0.,0.));
#528=CARTESIAN_POINT('',(2.09999999999999,0.,-75.));
#529=CARTESIAN_POINT('',(-7.105427357601E-15,72.9,0.));
#530=CARTESIAN_POINT('',(-6.93889390390723E-15,0.,0.));
#531=CARTESIAN_POINT('',(-6.93889390390723E-15,0.,-67.3673));
#532=CARTESIAN_POINT('',(-6.93889390390723E-15,0.,0.));
#533=CARTESIAN_POINT('',(9.06255,0.,0.));
#534=CARTESIAN_POINT('',(9.06255,0.,-65.));
#535=CARTESIAN_POINT('',(35.,0.,0.));
#536=CARTESIAN_POINT('',(25.93745,0.,0.));
#537=CARTESIAN_POINT('',(25.93745,0.,-65.));
#538=CARTESIAN_POINT('',(25.93745,0.,0.));
#539=CARTESIAN_POINT('',(35.,0.,0.));
#540=CARTESIAN_POINT('',(35.,0.,-67.3673));
#541=CARTESIAN_POINT('',(35.,67.3673,0.));
#542=CARTESIAN_POINT('',(35.,0.,0.));
#543=CARTESIAN_POINT('',(35.,0.,-72.9));
#544=CARTESIAN_POINT('',(32.9,0.,0.));
#545=CARTESIAN_POINT('',(32.9,0.,0.));
#546=CARTESIAN_POINT('',(32.9,0.,-75.));
#547=CARTESIAN_POINT('',(35.,0.,0.));
#548=CARTESIAN_POINT('',(0.,0.,0.));
#549=CARTESIAN_POINT('',(0.168749,0.,0.));
#550=CARTESIAN_POINT('',(0.168748999999999,0.,0.));
#551=CARTESIAN_POINT('',(0.168748999999999,0.,-9.999));
#552=CARTESIAN_POINT('',(16.706151,0.,0.));
#553=CARTESIAN_POINT('',(16.706151,0.,0.));
#554=CARTESIAN_POINT('',(16.706151,0.,-9.999));
#555=CARTESIAN_POINT('',(16.706151,9.999,0.));
#556=CARTESIAN_POINT('',(9.06255,55.,0.));
#557=CARTESIAN_POINT('',(9.06255,44.4959346906221,32.328188876086));
#558=CARTESIAN_POINT('',(9.06255,16.9959346906221,52.3081083962335));
#559=CARTESIAN_POINT('',(9.06255,-16.9959346906221,52.3081083962335));
#560=CARTESIAN_POINT('',(9.06255,-44.4959346906221,32.328188876086));
#561=CARTESIAN_POINT('',(9.06255,-55.,3.5527136788005E-15));
#562=CARTESIAN_POINT('',(9.06255,-44.4959346906221,-32.328188876086));
#563=CARTESIAN_POINT('',(9.06255,-16.9959346906221,-52.3081083962335));
#564=CARTESIAN_POINT('',(9.06255,16.9959346906221,-52.3081083962335));
#565=CARTESIAN_POINT('',(9.06255,44.4959346906221,-32.328188876086));
#566=MECHANICAL_DESIGN_GEOMETRIC_PRESENTATION_REPRESENTATION('',(#297,#298,
#299),#567);
#567=(
GEOMETRIC_REPRESENTATION_CONTEXT(3)
GLOBAL_UNCERTAINTY_ASSIGNED_CONTEXT((#571))
GLOBAL_UNIT_ASSIGNED_CONTEXT((#577,#576,#575))
REPRESENTATION_CONTEXT('N314','TOP_LEVEL_ASSEMBLY_PART')
);
#568=(
GEOMETRIC_REPRESENTATION_CONTEXT(3)
GLOBAL_UNCERTAINTY_ASSIGNED_CONTEXT((#572))
GLOBAL_UNIT_ASSIGNED_CONTEXT((#577,#576,#575))
REPRESENTATION_CONTEXT('N314 Inner ring','COMPONENT_PART')
);
#569=(
GEOMETRIC_REPRESENTATION_CONTEXT(3)
GLOBAL_UNCERTAINTY_ASSIGNED_CONTEXT((#573))
GLOBAL_UNIT_ASSIGNED_CONTEXT((#577,#576,#575))
REPRESENTATION_CONTEXT('N314 Outer ring','COMPONENT_PART')
);
#570=(
GEOMETRIC_REPRESENTATION_CONTEXT(3)
GLOBAL_UNCERTAINTY_ASSIGNED_CONTEXT((#574))
GLOBAL_UNIT_ASSIGNED_CONTEXT((#577,#576,#575))
REPRESENTATION_CONTEXT('N314 Roller','COMPONENT_PART')
);
#571=UNCERTAINTY_MEASURE_WITH_UNIT(LENGTH_MEASURE(0.005),#577,
'DISTANCE_ACCURACY_VALUE','Maximum Tolerance applied to model');
#572=UNCERTAINTY_MEASURE_WITH_UNIT(LENGTH_MEASURE(0.005),#577,
'DISTANCE_ACCURACY_VALUE','Maximum Tolerance applied to model');
#573=UNCERTAINTY_MEASURE_WITH_UNIT(LENGTH_MEASURE(0.005),#577,
'DISTANCE_ACCURACY_VALUE','Maximum Tolerance applied to model');
#574=UNCERTAINTY_MEASURE_WITH_UNIT(LENGTH_MEASURE(0.005),#577,
'DISTANCE_ACCURACY_VALUE','Maximum Tolerance applied to model');
#575=(
NAMED_UNIT(*)
SI_UNIT($,.STERADIAN.)
SOLID_ANGLE_UNIT()
);
#576=(
NAMED_UNIT(*)
PLANE_ANGLE_UNIT()
SI_UNIT($,.RADIAN.)
);
#577=(
LENGTH_UNIT()
NAMED_UNIT(*)
SI_UNIT(.MILLI.,.METRE.)
);
#578=PRODUCT_DEFINITION_SHAPE('','',#594);
#579=PRODUCT_DEFINITION_SHAPE('','',#595);
#580=PRODUCT_DEFINITION_SHAPE(' ','NAUO PRDDFN',#32);
#581=PRODUCT_DEFINITION_SHAPE('','',#596);
#582=PRODUCT_DEFINITION_SHAPE(' ','NAUO PRDDFN',#33);
#583=PRODUCT_DEFINITION_SHAPE('','',#597);
#584=PRODUCT_DEFINITION_SHAPE(' ','NAUO PRDDFN',#34);
#585=PRODUCT_DEFINITION_SHAPE(' ','NAUO PRDDFN',#35);
#586=PRODUCT_DEFINITION_SHAPE(' ','NAUO PRDDFN',#36);
#587=PRODUCT_DEFINITION_SHAPE(' ','NAUO PRDDFN',#37);
#588=PRODUCT_DEFINITION_SHAPE(' ','NAUO PRDDFN',#38);
#589=PRODUCT_DEFINITION_SHAPE(' ','NAUO PRDDFN',#39);
#590=PRODUCT_DEFINITION_SHAPE(' ','NAUO PRDDFN',#40);
#591=PRODUCT_DEFINITION_SHAPE(' ','NAUO PRDDFN',#41);
#592=PRODUCT_DEFINITION_SHAPE(' ','NAUO PRDDFN',#42);
#593=PRODUCT_DEFINITION_SHAPE(' ','NAUO PRDDFN',#43);
#594=PRODUCT_DEFINITION('','',#602,#598);
#595=PRODUCT_DEFINITION('','',#603,#599);
#596=PRODUCT_DEFINITION('','',#604,#600);
#597=PRODUCT_DEFINITION('','',#605,#601);
#598=PRODUCT_DEFINITION_CONTEXT('',#623,'design');
#599=PRODUCT_DEFINITION_CONTEXT('',#623,'design');
#600=PRODUCT_DEFINITION_CONTEXT('',#623,'design');
#601=PRODUCT_DEFINITION_CONTEXT('',#623,'design');
#602=PRODUCT_DEFINITION_FORMATION_WITH_SPECIFIED_SOURCE('','',#610,
 .NOT_KNOWN.);
#603=PRODUCT_DEFINITION_FORMATION_WITH_SPECIFIED_SOURCE('','',#611,
 .NOT_KNOWN.);
#604=PRODUCT_DEFINITION_FORMATION_WITH_SPECIFIED_SOURCE('','',#612,
 .NOT_KNOWN.);
#605=PRODUCT_DEFINITION_FORMATION_WITH_SPECIFIED_SOURCE('','',#613,
 .NOT_KNOWN.);
#606=PRODUCT_RELATED_PRODUCT_CATEGORY('','',(#610));
#607=PRODUCT_RELATED_PRODUCT_CATEGORY('','',(#611));
#608=PRODUCT_RELATED_PRODUCT_CATEGORY('','',(#612));
#609=PRODUCT_RELATED_PRODUCT_CATEGORY('','',(#613));
#610=PRODUCT('N314','N314','N314',(#618));
#611=PRODUCT('N314 Inner ring','N314 Inner ring','N314 Inner ring',(#619));
#612=PRODUCT('N314 Outer ring','N314 Outer ring','N314 Outer ring',(#620));
#613=PRODUCT('N314 Roller','N314 Roller','N314 Roller',(#621));
#614=PRODUCT_CATEGORY('','');
#615=PRODUCT_CATEGORY('','');
#616=PRODUCT_CATEGORY('','');
#617=PRODUCT_CATEGORY('','');
#618=PRODUCT_CONTEXT('',#623,'mechanical');
#619=PRODUCT_CONTEXT('',#623,'mechanical');
#620=PRODUCT_CONTEXT('',#623,'mechanical');
#621=PRODUCT_CONTEXT('',#623,'mechanical');
#622=APPLICATION_PROTOCOL_DEFINITION('international standard',
'automotive_design',2010,#623);
#623=APPLICATION_CONTEXT(
'core data for automotive mechanical design processes');
ENDSEC;
END-ISO-10303-21;
