ISO-10303-21;
HEADER;
/* Generated by software containing ST-Developer
 * from STEP Tools, Inc. (www.steptools.com) 
 */
/* OPTION: using custom renumber hook */

FILE_DESCRIPTION(
/* description */ ('STEP AP214'),
/* implementation_level */ '2;1');

FILE_NAME(
/* name */ '1201S',
/* time_stamp */ '2024-10-03T15:14:30+02:00',
/* author */ ('License CC BY-ND 4.0'),
/* organization */ ('CADENAS'),
/* preprocessor_version */ 'ST-DEVELOPER v19.3',
/* originating_system */ 'PARTsolutions',
/* authorisation */ '  ');

FILE_SCHEMA (('AUTOMOTIVE_DESIGN {1 0 10303 214 3 1 1}'));
ENDSEC;

DATA;
#10=PROPERTY_DEFINITION_REPRESENTATION(#14,#12);
#11=PROPERTY_DEFINITION_REPRESENTATION(#15,#13);
#12=REPRESENTATION('',(#16),#539);
#13=REPRESENTATION('',(#17),#539);
#14=PROPERTY_DEFINITION('pmi validation property','',#550);
#15=PROPERTY_DEFINITION('pmi validation property','',#550);
#16=VALUE_REPRESENTATION_ITEM('number of annotations',COUNT_MEASURE(0.));
#17=VALUE_REPRESENTATION_ITEM('number of views',COUNT_MEASURE(0.));
#18=VERTEX_LOOP('',#174);
#19=SPHERICAL_SURFACE('',#338,13.6765175583672);
#20=SPHERICAL_SURFACE('',#348,2.3);
#21=CONTEXT_DEPENDENT_SHAPE_REPRESENTATION(#57,#552);
#22=CONTEXT_DEPENDENT_SHAPE_REPRESENTATION(#58,#554);
#23=CONTEXT_DEPENDENT_SHAPE_REPRESENTATION(#59,#556);
#24=CONTEXT_DEPENDENT_SHAPE_REPRESENTATION(#60,#557);
#25=CONTEXT_DEPENDENT_SHAPE_REPRESENTATION(#61,#558);
#26=CONTEXT_DEPENDENT_SHAPE_REPRESENTATION(#62,#559);
#27=CONTEXT_DEPENDENT_SHAPE_REPRESENTATION(#63,#560);
#28=CONTEXT_DEPENDENT_SHAPE_REPRESENTATION(#64,#561);
#29=CONTEXT_DEPENDENT_SHAPE_REPRESENTATION(#65,#562);
#30=CONTEXT_DEPENDENT_SHAPE_REPRESENTATION(#66,#563);
#31=CONTEXT_DEPENDENT_SHAPE_REPRESENTATION(#67,#564);
#32=CONTEXT_DEPENDENT_SHAPE_REPRESENTATION(#68,#565);
#33=CONTEXT_DEPENDENT_SHAPE_REPRESENTATION(#69,#566);
#34=CONTEXT_DEPENDENT_SHAPE_REPRESENTATION(#70,#567);
#35=CONTEXT_DEPENDENT_SHAPE_REPRESENTATION(#71,#568);
#36=CONTEXT_DEPENDENT_SHAPE_REPRESENTATION(#72,#569);
#37=CONTEXT_DEPENDENT_SHAPE_REPRESENTATION(#73,#570);
#38=CONTEXT_DEPENDENT_SHAPE_REPRESENTATION(#74,#571);
#39=NEXT_ASSEMBLY_USAGE_OCCURRENCE('NAUO1','1201S Inner ring',
'1201S Inner ring',#572,#573,'');
#40=NEXT_ASSEMBLY_USAGE_OCCURRENCE('NAUO2','1201S Outer ring',
'1201S Outer ring',#572,#574,'');
#41=NEXT_ASSEMBLY_USAGE_OCCURRENCE('NAUO3','1201S Ball','1201S Ball',#572,
#575,'');
#42=NEXT_ASSEMBLY_USAGE_OCCURRENCE('NAUO4','1201S Ball','1201S Ball',#572,
#575,'');
#43=NEXT_ASSEMBLY_USAGE_OCCURRENCE('NAUO5','1201S Ball','1201S Ball',#572,
#575,'');
#44=NEXT_ASSEMBLY_USAGE_OCCURRENCE('NAUO6','1201S Ball','1201S Ball',#572,
#575,'');
#45=NEXT_ASSEMBLY_USAGE_OCCURRENCE('NAUO7','1201S Ball','1201S Ball',#572,
#575,'');
#46=NEXT_ASSEMBLY_USAGE_OCCURRENCE('NAUO8','1201S Ball','1201S Ball',#572,
#575,'');
#47=NEXT_ASSEMBLY_USAGE_OCCURRENCE('NAUO9','1201S Ball','1201S Ball',#572,
#575,'');
#48=NEXT_ASSEMBLY_USAGE_OCCURRENCE('NAUO10','1201S Ball','1201S Ball',#572,
#575,'');
#49=NEXT_ASSEMBLY_USAGE_OCCURRENCE('NAUO11','1201S Ball','1201S Ball',#572,
#575,'');
#50=NEXT_ASSEMBLY_USAGE_OCCURRENCE('NAUO12','1201S Ball','1201S Ball',#572,
#575,'');
#51=NEXT_ASSEMBLY_USAGE_OCCURRENCE('NAUO13','1201S Ball','1201S Ball',#572,
#575,'');
#52=NEXT_ASSEMBLY_USAGE_OCCURRENCE('NAUO14','1201S Ball','1201S Ball',#572,
#575,'');
#53=NEXT_ASSEMBLY_USAGE_OCCURRENCE('NAUO15','1201S Ball','1201S Ball',#572,
#575,'');
#54=NEXT_ASSEMBLY_USAGE_OCCURRENCE('NAUO16','1201S Ball','1201S Ball',#572,
#575,'');
#55=NEXT_ASSEMBLY_USAGE_OCCURRENCE('NAUO17','1201S Ball','1201S Ball',#572,
#575,'');
#56=NEXT_ASSEMBLY_USAGE_OCCURRENCE('NAUO18','1201S Ball','1201S Ball',#572,
#575,'');
#57=(
REPRESENTATION_RELATIONSHIP(' ',' ',#310,#309)
REPRESENTATION_RELATIONSHIP_WITH_TRANSFORMATION(#75)
SHAPE_REPRESENTATION_RELATIONSHIP()
);
#58=(
REPRESENTATION_RELATIONSHIP(' ',' ',#311,#309)
REPRESENTATION_RELATIONSHIP_WITH_TRANSFORMATION(#76)
SHAPE_REPRESENTATION_RELATIONSHIP()
);
#59=(
REPRESENTATION_RELATIONSHIP(' ',' ',#312,#309)
REPRESENTATION_RELATIONSHIP_WITH_TRANSFORMATION(#77)
SHAPE_REPRESENTATION_RELATIONSHIP()
);
#60=(
REPRESENTATION_RELATIONSHIP(' ',' ',#312,#309)
REPRESENTATION_RELATIONSHIP_WITH_TRANSFORMATION(#78)
SHAPE_REPRESENTATION_RELATIONSHIP()
);
#61=(
REPRESENTATION_RELATIONSHIP(' ',' ',#312,#309)
REPRESENTATION_RELATIONSHIP_WITH_TRANSFORMATION(#79)
SHAPE_REPRESENTATION_RELATIONSHIP()
);
#62=(
REPRESENTATION_RELATIONSHIP(' ',' ',#312,#309)
REPRESENTATION_RELATIONSHIP_WITH_TRANSFORMATION(#80)
SHAPE_REPRESENTATION_RELATIONSHIP()
);
#63=(
REPRESENTATION_RELATIONSHIP(' ',' ',#312,#309)
REPRESENTATION_RELATIONSHIP_WITH_TRANSFORMATION(#81)
SHAPE_REPRESENTATION_RELATIONSHIP()
);
#64=(
REPRESENTATION_RELATIONSHIP(' ',' ',#312,#309)
REPRESENTATION_RELATIONSHIP_WITH_TRANSFORMATION(#82)
SHAPE_REPRESENTATION_RELATIONSHIP()
);
#65=(
REPRESENTATION_RELATIONSHIP(' ',' ',#312,#309)
REPRESENTATION_RELATIONSHIP_WITH_TRANSFORMATION(#83)
SHAPE_REPRESENTATION_RELATIONSHIP()
);
#66=(
REPRESENTATION_RELATIONSHIP(' ',' ',#312,#309)
REPRESENTATION_RELATIONSHIP_WITH_TRANSFORMATION(#84)
SHAPE_REPRESENTATION_RELATIONSHIP()
);
#67=(
REPRESENTATION_RELATIONSHIP(' ',' ',#312,#309)
REPRESENTATION_RELATIONSHIP_WITH_TRANSFORMATION(#85)
SHAPE_REPRESENTATION_RELATIONSHIP()
);
#68=(
REPRESENTATION_RELATIONSHIP(' ',' ',#312,#309)
REPRESENTATION_RELATIONSHIP_WITH_TRANSFORMATION(#86)
SHAPE_REPRESENTATION_RELATIONSHIP()
);
#69=(
REPRESENTATION_RELATIONSHIP(' ',' ',#312,#309)
REPRESENTATION_RELATIONSHIP_WITH_TRANSFORMATION(#87)
SHAPE_REPRESENTATION_RELATIONSHIP()
);
#70=(
REPRESENTATION_RELATIONSHIP(' ',' ',#312,#309)
REPRESENTATION_RELATIONSHIP_WITH_TRANSFORMATION(#88)
SHAPE_REPRESENTATION_RELATIONSHIP()
);
#71=(
REPRESENTATION_RELATIONSHIP(' ',' ',#312,#309)
REPRESENTATION_RELATIONSHIP_WITH_TRANSFORMATION(#89)
SHAPE_REPRESENTATION_RELATIONSHIP()
);
#72=(
REPRESENTATION_RELATIONSHIP(' ',' ',#312,#309)
REPRESENTATION_RELATIONSHIP_WITH_TRANSFORMATION(#90)
SHAPE_REPRESENTATION_RELATIONSHIP()
);
#73=(
REPRESENTATION_RELATIONSHIP(' ',' ',#312,#309)
REPRESENTATION_RELATIONSHIP_WITH_TRANSFORMATION(#91)
SHAPE_REPRESENTATION_RELATIONSHIP()
);
#74=(
REPRESENTATION_RELATIONSHIP(' ',' ',#312,#309)
REPRESENTATION_RELATIONSHIP_WITH_TRANSFORMATION(#92)
SHAPE_REPRESENTATION_RELATIONSHIP()
);
#75=ITEM_DEFINED_TRANSFORMATION(' ',' ',#313,#334);
#76=ITEM_DEFINED_TRANSFORMATION(' ',' ',#313,#347);
#77=ITEM_DEFINED_TRANSFORMATION(' ',' ',#313,#349);
#78=ITEM_DEFINED_TRANSFORMATION(' ',' ',#313,#350);
#79=ITEM_DEFINED_TRANSFORMATION(' ',' ',#313,#351);
#80=ITEM_DEFINED_TRANSFORMATION(' ',' ',#313,#352);
#81=ITEM_DEFINED_TRANSFORMATION(' ',' ',#313,#353);
#82=ITEM_DEFINED_TRANSFORMATION(' ',' ',#313,#354);
#83=ITEM_DEFINED_TRANSFORMATION(' ',' ',#313,#355);
#84=ITEM_DEFINED_TRANSFORMATION(' ',' ',#313,#356);
#85=ITEM_DEFINED_TRANSFORMATION(' ',' ',#313,#357);
#86=ITEM_DEFINED_TRANSFORMATION(' ',' ',#313,#358);
#87=ITEM_DEFINED_TRANSFORMATION(' ',' ',#313,#359);
#88=ITEM_DEFINED_TRANSFORMATION(' ',' ',#313,#360);
#89=ITEM_DEFINED_TRANSFORMATION(' ',' ',#313,#361);
#90=ITEM_DEFINED_TRANSFORMATION(' ',' ',#313,#362);
#91=ITEM_DEFINED_TRANSFORMATION(' ',' ',#313,#363);
#92=ITEM_DEFINED_TRANSFORMATION(' ',' ',#313,#364);
#93=SHAPE_REPRESENTATION_RELATIONSHIP('','',#310,#96);
#94=SHAPE_REPRESENTATION_RELATIONSHIP('','',#311,#97);
#95=SHAPE_REPRESENTATION_RELATIONSHIP('','',#312,#98);
#96=ADVANCED_BREP_SHAPE_REPRESENTATION('',(#302),#540);
#97=ADVANCED_BREP_SHAPE_REPRESENTATION('',(#303),#541);
#98=ADVANCED_BREP_SHAPE_REPRESENTATION('',(#304),#542);
#99=CYLINDRICAL_SURFACE('',#319,6.);
#100=CYLINDRICAL_SURFACE('',#325,9.16);
#101=CYLINDRICAL_SURFACE('',#329,9.16);
#102=CYLINDRICAL_SURFACE('',#333,9.16);
#103=CYLINDRICAL_SURFACE('',#344,16.);
#104=TOROIDAL_SURFACE('',#317,6.6,0.599999999999999);
#105=TOROIDAL_SURFACE('',#321,6.6,0.600000000000002);
#106=TOROIDAL_SURFACE('',#327,11.,2.3);
#107=TOROIDAL_SURFACE('',#331,11.,2.3);
#108=TOROIDAL_SURFACE('',#342,15.4,0.600000000000007);
#109=TOROIDAL_SURFACE('',#346,15.4,0.600000000000003);
#110=ORIENTED_EDGE('',*,*,#142,.T.);
#111=ORIENTED_EDGE('',*,*,#143,.F.);
#112=ORIENTED_EDGE('',*,*,#144,.T.);
#113=ORIENTED_EDGE('',*,*,#142,.F.);
#114=ORIENTED_EDGE('',*,*,#145,.T.);
#115=ORIENTED_EDGE('',*,*,#144,.F.);
#116=ORIENTED_EDGE('',*,*,#146,.T.);
#117=ORIENTED_EDGE('',*,*,#145,.F.);
#118=ORIENTED_EDGE('',*,*,#147,.T.);
#119=ORIENTED_EDGE('',*,*,#146,.F.);
#120=ORIENTED_EDGE('',*,*,#148,.T.);
#121=ORIENTED_EDGE('',*,*,#147,.F.);
#122=ORIENTED_EDGE('',*,*,#148,.F.);
#123=ORIENTED_EDGE('',*,*,#149,.T.);
#124=ORIENTED_EDGE('',*,*,#150,.T.);
#125=ORIENTED_EDGE('',*,*,#149,.F.);
#126=ORIENTED_EDGE('',*,*,#150,.F.);
#127=ORIENTED_EDGE('',*,*,#151,.T.);
#128=ORIENTED_EDGE('',*,*,#143,.T.);
#129=ORIENTED_EDGE('',*,*,#151,.F.);
#130=ORIENTED_EDGE('',*,*,#152,.T.);
#131=ORIENTED_EDGE('',*,*,#153,.F.);
#132=ORIENTED_EDGE('',*,*,#152,.F.);
#133=ORIENTED_EDGE('',*,*,#154,.T.);
#134=ORIENTED_EDGE('',*,*,#155,.T.);
#135=ORIENTED_EDGE('',*,*,#154,.F.);
#136=ORIENTED_EDGE('',*,*,#156,.T.);
#137=ORIENTED_EDGE('',*,*,#155,.F.);
#138=ORIENTED_EDGE('',*,*,#157,.T.);
#139=ORIENTED_EDGE('',*,*,#156,.F.);
#140=ORIENTED_EDGE('',*,*,#153,.T.);
#141=ORIENTED_EDGE('',*,*,#157,.F.);
#142=EDGE_CURVE('',#158,#158,#175,.T.);
#143=EDGE_CURVE('',#159,#159,#176,.T.);
#144=EDGE_CURVE('',#160,#160,#177,.T.);
#145=EDGE_CURVE('',#161,#161,#178,.T.);
#146=EDGE_CURVE('',#162,#162,#179,.T.);
#147=EDGE_CURVE('',#163,#163,#180,.T.);
#148=EDGE_CURVE('',#164,#164,#181,.T.);
#149=EDGE_CURVE('',#165,#165,#182,.T.);
#150=EDGE_CURVE('',#166,#166,#183,.T.);
#151=EDGE_CURVE('',#167,#167,#184,.T.);
#152=EDGE_CURVE('',#168,#168,#185,.T.);
#153=EDGE_CURVE('',#169,#169,#186,.T.);
#154=EDGE_CURVE('',#170,#170,#187,.T.);
#155=EDGE_CURVE('',#171,#171,#188,.T.);
#156=EDGE_CURVE('',#172,#172,#189,.T.);
#157=EDGE_CURVE('',#173,#173,#190,.T.);
#158=VERTEX_POINT('',#472);
#159=VERTEX_POINT('',#474);
#160=VERTEX_POINT('',#477);
#161=VERTEX_POINT('',#480);
#162=VERTEX_POINT('',#483);
#163=VERTEX_POINT('',#486);
#164=VERTEX_POINT('',#489);
#165=VERTEX_POINT('',#492);
#166=VERTEX_POINT('',#495);
#167=VERTEX_POINT('',#498);
#168=VERTEX_POINT('',#503);
#169=VERTEX_POINT('',#505);
#170=VERTEX_POINT('',#508);
#171=VERTEX_POINT('',#511);
#172=VERTEX_POINT('',#514);
#173=VERTEX_POINT('',#517);
#174=VERTEX_POINT('',#521);
#175=CIRCLE('',#315,6.6);
#176=CIRCLE('',#316,9.16);
#177=CIRCLE('',#318,6.);
#178=CIRCLE('',#320,6.);
#179=CIRCLE('',#322,6.6);
#180=CIRCLE('',#324,9.16);
#181=CIRCLE('',#326,9.16);
#182=CIRCLE('',#328,9.16);
#183=CIRCLE('',#330,9.16);
#184=CIRCLE('',#332,9.16);
#185=CIRCLE('',#336,12.7297734671252);
#186=CIRCLE('',#337,15.4);
#187=CIRCLE('',#339,12.7297734671252);
#188=CIRCLE('',#341,15.4);
#189=CIRCLE('',#343,16.);
#190=CIRCLE('',#345,16.);
#191=EDGE_LOOP('',(#110));
#192=EDGE_LOOP('',(#111));
#193=EDGE_LOOP('',(#112));
#194=EDGE_LOOP('',(#113));
#195=EDGE_LOOP('',(#114));
#196=EDGE_LOOP('',(#115));
#197=EDGE_LOOP('',(#116));
#198=EDGE_LOOP('',(#117));
#199=EDGE_LOOP('',(#118));
#200=EDGE_LOOP('',(#119));
#201=EDGE_LOOP('',(#120));
#202=EDGE_LOOP('',(#121));
#203=EDGE_LOOP('',(#122));
#204=EDGE_LOOP('',(#123));
#205=EDGE_LOOP('',(#124));
#206=EDGE_LOOP('',(#125));
#207=EDGE_LOOP('',(#126));
#208=EDGE_LOOP('',(#127));
#209=EDGE_LOOP('',(#128));
#210=EDGE_LOOP('',(#129));
#211=EDGE_LOOP('',(#130));
#212=EDGE_LOOP('',(#131));
#213=EDGE_LOOP('',(#132));
#214=EDGE_LOOP('',(#133));
#215=EDGE_LOOP('',(#134));
#216=EDGE_LOOP('',(#135));
#217=EDGE_LOOP('',(#136));
#218=EDGE_LOOP('',(#137));
#219=EDGE_LOOP('',(#138));
#220=EDGE_LOOP('',(#139));
#221=EDGE_LOOP('',(#140));
#222=EDGE_LOOP('',(#141));
#223=FACE_BOUND('',#191,.T.);
#224=FACE_BOUND('',#192,.T.);
#225=FACE_BOUND('',#193,.T.);
#226=FACE_BOUND('',#194,.T.);
#227=FACE_BOUND('',#195,.T.);
#228=FACE_BOUND('',#196,.T.);
#229=FACE_BOUND('',#197,.T.);
#230=FACE_BOUND('',#198,.T.);
#231=FACE_BOUND('',#199,.T.);
#232=FACE_BOUND('',#200,.T.);
#233=FACE_BOUND('',#201,.T.);
#234=FACE_BOUND('',#202,.T.);
#235=FACE_BOUND('',#203,.T.);
#236=FACE_BOUND('',#204,.T.);
#237=FACE_BOUND('',#205,.T.);
#238=FACE_BOUND('',#206,.T.);
#239=FACE_BOUND('',#207,.T.);
#240=FACE_BOUND('',#208,.T.);
#241=FACE_BOUND('',#209,.T.);
#242=FACE_BOUND('',#210,.T.);
#243=FACE_BOUND('',#211,.T.);
#244=FACE_BOUND('',#212,.T.);
#245=FACE_BOUND('',#213,.T.);
#246=FACE_BOUND('',#214,.T.);
#247=FACE_BOUND('',#215,.T.);
#248=FACE_BOUND('',#216,.T.);
#249=FACE_BOUND('',#217,.T.);
#250=FACE_BOUND('',#218,.T.);
#251=FACE_BOUND('',#219,.T.);
#252=FACE_BOUND('',#220,.T.);
#253=FACE_BOUND('',#221,.T.);
#254=FACE_BOUND('',#222,.T.);
#255=FACE_BOUND('',#18,.T.);
#256=PLANE('',#314);
#257=PLANE('',#323);
#258=PLANE('',#335);
#259=PLANE('',#340);
#260=ADVANCED_FACE('',(#223,#224),#256,.T.);
#261=ADVANCED_FACE('',(#225,#226),#104,.T.);
#262=ADVANCED_FACE('',(#227,#228),#99,.F.);
#263=ADVANCED_FACE('',(#229,#230),#105,.T.);
#264=ADVANCED_FACE('',(#231,#232),#257,.T.);
#265=ADVANCED_FACE('',(#233,#234),#100,.T.);
#266=ADVANCED_FACE('',(#235,#236),#106,.F.);
#267=ADVANCED_FACE('',(#237,#238),#101,.T.);
#268=ADVANCED_FACE('',(#239,#240),#107,.F.);
#269=ADVANCED_FACE('',(#241,#242),#102,.T.);
#270=ADVANCED_FACE('',(#243,#244),#258,.T.);
#271=ADVANCED_FACE('',(#245,#246),#19,.F.);
#272=ADVANCED_FACE('',(#247,#248),#259,.T.);
#273=ADVANCED_FACE('',(#249,#250),#108,.T.);
#274=ADVANCED_FACE('',(#251,#252),#103,.T.);
#275=ADVANCED_FACE('',(#253,#254),#109,.T.);
#276=ADVANCED_FACE('',(#255),#20,.T.);
#277=CLOSED_SHELL('',(#260,#261,#262,#263,#264,#265,#266,#267,#268,#269));
#278=CLOSED_SHELL('',(#270,#271,#272,#273,#274,#275));
#279=CLOSED_SHELL('',(#276));
#280=STYLED_ITEM('',(#283),#302);
#281=STYLED_ITEM('',(#284),#303);
#282=STYLED_ITEM('',(#285),#304);
#283=PRESENTATION_STYLE_ASSIGNMENT((#286));
#284=PRESENTATION_STYLE_ASSIGNMENT((#287));
#285=PRESENTATION_STYLE_ASSIGNMENT((#288));
#286=SURFACE_STYLE_USAGE(.BOTH.,#289);
#287=SURFACE_STYLE_USAGE(.BOTH.,#290);
#288=SURFACE_STYLE_USAGE(.BOTH.,#291);
#289=SURFACE_SIDE_STYLE('',(#292));
#290=SURFACE_SIDE_STYLE('',(#293));
#291=SURFACE_SIDE_STYLE('',(#294));
#292=SURFACE_STYLE_FILL_AREA(#295);
#293=SURFACE_STYLE_FILL_AREA(#296);
#294=SURFACE_STYLE_FILL_AREA(#297);
#295=FILL_AREA_STYLE('',(#298));
#296=FILL_AREA_STYLE('',(#299));
#297=FILL_AREA_STYLE('',(#300));
#298=FILL_AREA_STYLE_COLOUR('',#301);
#299=FILL_AREA_STYLE_COLOUR('',#301);
#300=FILL_AREA_STYLE_COLOUR('',#301);
#301=COLOUR_RGB('',0.689999997615814,0.689999997615814,0.689999997615814);
#302=MANIFOLD_SOLID_BREP('1201S Inner ring',#277);
#303=MANIFOLD_SOLID_BREP('1201S Outer ring',#278);
#304=MANIFOLD_SOLID_BREP('1201S Ball',#279);
#305=SHAPE_DEFINITION_REPRESENTATION(#550,#309);
#306=SHAPE_DEFINITION_REPRESENTATION(#551,#310);
#307=SHAPE_DEFINITION_REPRESENTATION(#553,#311);
#308=SHAPE_DEFINITION_REPRESENTATION(#555,#312);
#309=SHAPE_REPRESENTATION('1201S',(#313,#334,#347,#349,#350,#351,#352,#353,
#354,#355,#356,#357,#358,#359,#360,#361,#362,#363,#364),#539);
#310=SHAPE_REPRESENTATION('1201S Inner ring',(#313),#540);
#311=SHAPE_REPRESENTATION('1201S Outer ring',(#313),#541);
#312=SHAPE_REPRESENTATION('1201S Ball',(#313),#542);
#313=AXIS2_PLACEMENT_3D('',#469,#365,#366);
#314=AXIS2_PLACEMENT_3D('',#470,#367,#368);
#315=AXIS2_PLACEMENT_3D('',#471,#369,#370);
#316=AXIS2_PLACEMENT_3D('',#473,#371,#372);
#317=AXIS2_PLACEMENT_3D('',#475,#373,#374);
#318=AXIS2_PLACEMENT_3D('',#476,#375,#376);
#319=AXIS2_PLACEMENT_3D('',#478,#377,#378);
#320=AXIS2_PLACEMENT_3D('',#479,#379,#380);
#321=AXIS2_PLACEMENT_3D('',#481,#381,#382);
#322=AXIS2_PLACEMENT_3D('',#482,#383,#384);
#323=AXIS2_PLACEMENT_3D('',#484,#385,#386);
#324=AXIS2_PLACEMENT_3D('',#485,#387,#388);
#325=AXIS2_PLACEMENT_3D('',#487,#389,#390);
#326=AXIS2_PLACEMENT_3D('',#488,#391,#392);
#327=AXIS2_PLACEMENT_3D('',#490,#393,#394);
#328=AXIS2_PLACEMENT_3D('',#491,#395,#396);
#329=AXIS2_PLACEMENT_3D('',#493,#397,#398);
#330=AXIS2_PLACEMENT_3D('',#494,#399,#400);
#331=AXIS2_PLACEMENT_3D('',#496,#401,#402);
#332=AXIS2_PLACEMENT_3D('',#497,#403,#404);
#333=AXIS2_PLACEMENT_3D('',#499,#405,#406);
#334=AXIS2_PLACEMENT_3D('',#500,#407,#408);
#335=AXIS2_PLACEMENT_3D('',#501,#409,#410);
#336=AXIS2_PLACEMENT_3D('',#502,#411,#412);
#337=AXIS2_PLACEMENT_3D('',#504,#413,#414);
#338=AXIS2_PLACEMENT_3D('',#506,#415,#416);
#339=AXIS2_PLACEMENT_3D('',#507,#417,#418);
#340=AXIS2_PLACEMENT_3D('',#509,#419,#420);
#341=AXIS2_PLACEMENT_3D('',#510,#421,#422);
#342=AXIS2_PLACEMENT_3D('',#512,#423,#424);
#343=AXIS2_PLACEMENT_3D('',#513,#425,#426);
#344=AXIS2_PLACEMENT_3D('',#515,#427,#428);
#345=AXIS2_PLACEMENT_3D('',#516,#429,#430);
#346=AXIS2_PLACEMENT_3D('',#518,#431,#432);
#347=AXIS2_PLACEMENT_3D('',#519,#433,#434);
#348=AXIS2_PLACEMENT_3D('',#520,#435,#436);
#349=AXIS2_PLACEMENT_3D('',#522,#437,#438);
#350=AXIS2_PLACEMENT_3D('',#523,#439,#440);
#351=AXIS2_PLACEMENT_3D('',#524,#441,#442);
#352=AXIS2_PLACEMENT_3D('',#525,#443,#444);
#353=AXIS2_PLACEMENT_3D('',#526,#445,#446);
#354=AXIS2_PLACEMENT_3D('',#527,#447,#448);
#355=AXIS2_PLACEMENT_3D('',#528,#449,#450);
#356=AXIS2_PLACEMENT_3D('',#529,#451,#452);
#357=AXIS2_PLACEMENT_3D('',#530,#453,#454);
#358=AXIS2_PLACEMENT_3D('',#531,#455,#456);
#359=AXIS2_PLACEMENT_3D('',#532,#457,#458);
#360=AXIS2_PLACEMENT_3D('',#533,#459,#460);
#361=AXIS2_PLACEMENT_3D('',#534,#461,#462);
#362=AXIS2_PLACEMENT_3D('',#535,#463,#464);
#363=AXIS2_PLACEMENT_3D('',#536,#465,#466);
#364=AXIS2_PLACEMENT_3D('',#537,#467,#468);
#365=DIRECTION('',(0.,0.,1.));
#366=DIRECTION('',(1.,0.,0.));
#367=DIRECTION('',(-1.,0.,0.));
#368=DIRECTION('',(0.,0.,1.));
#369=DIRECTION('',(1.,0.,0.));
#370=DIRECTION('',(0.,0.,-1.));
#371=DIRECTION('',(1.,0.,0.));
#372=DIRECTION('',(0.,0.,-1.));
#373=DIRECTION('',(1.,0.,0.));
#374=DIRECTION('',(0.,0.,-1.));
#375=DIRECTION('',(1.,0.,0.));
#376=DIRECTION('',(0.,0.,-1.));
#377=DIRECTION('',(1.,0.,0.));
#378=DIRECTION('',(0.,0.,-1.));
#379=DIRECTION('',(1.,0.,0.));
#380=DIRECTION('',(0.,0.,-1.));
#381=DIRECTION('',(1.,0.,0.));
#382=DIRECTION('',(0.,0.,-1.));
#383=DIRECTION('',(1.,0.,0.));
#384=DIRECTION('',(0.,0.,-1.));
#385=DIRECTION('',(1.,0.,0.));
#386=DIRECTION('',(0.,0.,-1.));
#387=DIRECTION('',(1.,0.,0.));
#388=DIRECTION('',(0.,0.,-1.));
#389=DIRECTION('',(1.,0.,0.));
#390=DIRECTION('',(0.,0.,-1.));
#391=DIRECTION('',(1.,0.,0.));
#392=DIRECTION('',(0.,0.,-1.));
#393=DIRECTION('',(1.,0.,0.));
#394=DIRECTION('',(0.,0.,-1.));
#395=DIRECTION('',(1.,0.,0.));
#396=DIRECTION('',(0.,0.,-1.));
#397=DIRECTION('',(1.,0.,0.));
#398=DIRECTION('',(0.,0.,-1.));
#399=DIRECTION('',(1.,0.,0.));
#400=DIRECTION('',(0.,0.,-1.));
#401=DIRECTION('',(1.,0.,0.));
#402=DIRECTION('',(0.,0.,-1.));
#403=DIRECTION('',(1.,0.,0.));
#404=DIRECTION('',(0.,0.,-1.));
#405=DIRECTION('',(1.,0.,0.));
#406=DIRECTION('',(0.,0.,-1.));
#407=DIRECTION('',(0.,0.,1.));
#408=DIRECTION('',(1.,0.,0.));
#409=DIRECTION('',(-1.,0.,0.));
#410=DIRECTION('',(0.,0.,1.));
#411=DIRECTION('',(1.,0.,0.));
#412=DIRECTION('',(0.,0.,-1.));
#413=DIRECTION('',(1.,0.,0.));
#414=DIRECTION('',(0.,0.,-1.));
#415=DIRECTION('',(1.,0.,0.));
#416=DIRECTION('',(0.,1.,0.));
#417=DIRECTION('',(1.,0.,0.));
#418=DIRECTION('',(0.,0.,-1.));
#419=DIRECTION('',(1.,0.,0.));
#420=DIRECTION('',(0.,0.,-1.));
#421=DIRECTION('',(1.,0.,0.));
#422=DIRECTION('',(0.,0.,-1.));
#423=DIRECTION('',(1.,0.,0.));
#424=DIRECTION('',(0.,0.,-1.));
#425=DIRECTION('',(1.,0.,0.));
#426=DIRECTION('',(0.,0.,-1.));
#427=DIRECTION('',(1.,0.,0.));
#428=DIRECTION('',(0.,0.,-1.));
#429=DIRECTION('',(1.,0.,0.));
#430=DIRECTION('',(0.,0.,-1.));
#431=DIRECTION('',(1.,0.,0.));
#432=DIRECTION('',(0.,0.,-1.));
#433=DIRECTION('',(0.,0.,1.));
#434=DIRECTION('',(1.,0.,0.));
#435=DIRECTION('',(1.,0.,0.));
#436=DIRECTION('',(0.,-1.,0.));
#437=DIRECTION('',(0.,0.,1.));
#438=DIRECTION('',(-1.,0.,0.));
#439=DIRECTION('',(0.,0.,1.));
#440=DIRECTION('',(-1.,0.,0.));
#441=DIRECTION('',(0.,0.,1.));
#442=DIRECTION('',(-1.,0.,0.));
#443=DIRECTION('',(0.,0.,1.));
#444=DIRECTION('',(-1.,0.,0.));
#445=DIRECTION('',(0.,0.,1.));
#446=DIRECTION('',(-1.,0.,0.));
#447=DIRECTION('',(0.,0.,1.));
#448=DIRECTION('',(-1.,0.,0.));
#449=DIRECTION('',(0.,0.,1.));
#450=DIRECTION('',(-1.,0.,0.));
#451=DIRECTION('',(0.,0.,1.));
#452=DIRECTION('',(-1.,0.,0.));
#453=DIRECTION('',(0.,0.,1.));
#454=DIRECTION('',(-1.,0.,0.));
#455=DIRECTION('',(0.,0.,1.));
#456=DIRECTION('',(-1.,0.,0.));
#457=DIRECTION('',(0.,0.,1.));
#458=DIRECTION('',(-1.,0.,0.));
#459=DIRECTION('',(0.,0.,1.));
#460=DIRECTION('',(-1.,0.,0.));
#461=DIRECTION('',(0.,0.,1.));
#462=DIRECTION('',(-1.,0.,0.));
#463=DIRECTION('',(0.,0.,1.));
#464=DIRECTION('',(-1.,0.,0.));
#465=DIRECTION('',(0.,0.,1.));
#466=DIRECTION('',(-1.,0.,0.));
#467=DIRECTION('',(0.,0.,1.));
#468=DIRECTION('',(-1.,0.,0.));
#469=CARTESIAN_POINT('',(0.,0.,0.));
#470=CARTESIAN_POINT('',(0.,9.16,0.));
#471=CARTESIAN_POINT('',(0.,0.,0.));
#472=CARTESIAN_POINT('',(0.,0.,-6.6));
#473=CARTESIAN_POINT('',(0.,0.,0.));
#474=CARTESIAN_POINT('',(0.,0.,-9.16));
#475=CARTESIAN_POINT('',(0.599999999999999,0.,0.));
#476=CARTESIAN_POINT('',(0.6,0.,0.));
#477=CARTESIAN_POINT('',(0.6,0.,-6.));
#478=CARTESIAN_POINT('',(10.,0.,0.));
#479=CARTESIAN_POINT('',(9.4,0.,0.));
#480=CARTESIAN_POINT('',(9.4,0.,-6.));
#481=CARTESIAN_POINT('',(9.4,0.,0.));
#482=CARTESIAN_POINT('',(10.,0.,0.));
#483=CARTESIAN_POINT('',(10.,0.,-6.6));
#484=CARTESIAN_POINT('',(10.,6.6,0.));
#485=CARTESIAN_POINT('',(10.,0.,0.));
#486=CARTESIAN_POINT('',(10.,0.,-9.16));
#487=CARTESIAN_POINT('',(10.,0.,0.));
#488=CARTESIAN_POINT('',(9.08,0.,0.));
#489=CARTESIAN_POINT('',(9.08,0.,-9.16));
#490=CARTESIAN_POINT('',(7.7,0.,0.));
#491=CARTESIAN_POINT('',(6.32,0.,0.));
#492=CARTESIAN_POINT('',(6.32,0.,-9.16));
#493=CARTESIAN_POINT('',(10.,0.,0.));
#494=CARTESIAN_POINT('',(3.68,0.,0.));
#495=CARTESIAN_POINT('',(3.68,0.,-9.16));
#496=CARTESIAN_POINT('',(2.3,0.,0.));
#497=CARTESIAN_POINT('',(0.919999999999999,0.,0.));
#498=CARTESIAN_POINT('',(0.919999999999999,0.,-9.16));
#499=CARTESIAN_POINT('',(10.,0.,0.));
#500=CARTESIAN_POINT('',(0.,0.,0.));
#501=CARTESIAN_POINT('',(1.89735380184963E-15,15.4,0.));
#502=CARTESIAN_POINT('',(1.73472347597681E-15,0.,0.));
#503=CARTESIAN_POINT('',(1.73472347597681E-15,0.,-12.7297734671252));
#504=CARTESIAN_POINT('',(1.73472347597681E-15,0.,0.));
#505=CARTESIAN_POINT('',(1.73472347597681E-15,0.,-15.4));
#506=CARTESIAN_POINT('',(5.,2.60208521396521E-14,0.));
#507=CARTESIAN_POINT('',(10.,0.,0.));
#508=CARTESIAN_POINT('',(10.,0.,-12.7297734671252));
#509=CARTESIAN_POINT('',(10.,12.7297734671252,0.));
#510=CARTESIAN_POINT('',(10.,0.,0.));
#511=CARTESIAN_POINT('',(10.,0.,-15.4));
#512=CARTESIAN_POINT('',(9.39999999999999,0.,0.));
#513=CARTESIAN_POINT('',(9.4,0.,0.));
#514=CARTESIAN_POINT('',(9.4,0.,-16.));
#515=CARTESIAN_POINT('',(10.,0.,0.));
#516=CARTESIAN_POINT('',(0.6,0.,0.));
#517=CARTESIAN_POINT('',(0.6,0.,-16.));
#518=CARTESIAN_POINT('',(0.600000000000005,0.,0.));
#519=CARTESIAN_POINT('',(0.,0.,0.));
#520=CARTESIAN_POINT('',(0.,0.,0.));
#521=CARTESIAN_POINT('',(-2.3,-1.40834381901946E-16,0.));
#522=CARTESIAN_POINT('',(2.3,11.,0.));
#523=CARTESIAN_POINT('',(2.3,7.77817459305202,7.77817459305202));
#524=CARTESIAN_POINT('',(2.3,0.,11.));
#525=CARTESIAN_POINT('',(2.3,-7.77817459305202,7.77817459305202));
#526=CARTESIAN_POINT('',(2.3,-11.,0.));
#527=CARTESIAN_POINT('',(2.3,-7.77817459305203,-7.77817459305203));
#528=CARTESIAN_POINT('',(2.3,0.,-11.));
#529=CARTESIAN_POINT('',(2.3,7.77817459305203,-7.77817459305203));
#530=CARTESIAN_POINT('',(7.7,11.,0.));
#531=CARTESIAN_POINT('',(7.7,7.77817459305202,7.77817459305202));
#532=CARTESIAN_POINT('',(7.7,0.,11.));
#533=CARTESIAN_POINT('',(7.7,-7.77817459305202,7.77817459305202));
#534=CARTESIAN_POINT('',(7.7,-11.,0.));
#535=CARTESIAN_POINT('',(7.7,-7.77817459305203,-7.77817459305203));
#536=CARTESIAN_POINT('',(7.7,0.,-11.));
#537=CARTESIAN_POINT('',(7.7,7.77817459305203,-7.77817459305203));
#538=MECHANICAL_DESIGN_GEOMETRIC_PRESENTATION_REPRESENTATION('',(#280,#281,
#282),#539);
#539=(
GEOMETRIC_REPRESENTATION_CONTEXT(3)
GLOBAL_UNCERTAINTY_ASSIGNED_CONTEXT((#543))
GLOBAL_UNIT_ASSIGNED_CONTEXT((#549,#548,#547))
REPRESENTATION_CONTEXT('1201S','TOP_LEVEL_ASSEMBLY_PART')
);
#540=(
GEOMETRIC_REPRESENTATION_CONTEXT(3)
GLOBAL_UNCERTAINTY_ASSIGNED_CONTEXT((#544))
GLOBAL_UNIT_ASSIGNED_CONTEXT((#549,#548,#547))
REPRESENTATION_CONTEXT('1201S Inner ring','COMPONENT_PART')
);
#541=(
GEOMETRIC_REPRESENTATION_CONTEXT(3)
GLOBAL_UNCERTAINTY_ASSIGNED_CONTEXT((#545))
GLOBAL_UNIT_ASSIGNED_CONTEXT((#549,#548,#547))
REPRESENTATION_CONTEXT('1201S Outer ring','COMPONENT_PART')
);
#542=(
GEOMETRIC_REPRESENTATION_CONTEXT(3)
GLOBAL_UNCERTAINTY_ASSIGNED_CONTEXT((#546))
GLOBAL_UNIT_ASSIGNED_CONTEXT((#549,#548,#547))
REPRESENTATION_CONTEXT('1201S Ball','COMPONENT_PART')
);
#543=UNCERTAINTY_MEASURE_WITH_UNIT(LENGTH_MEASURE(0.005),#549,
'DISTANCE_ACCURACY_VALUE','Maximum Tolerance applied to model');
#544=UNCERTAINTY_MEASURE_WITH_UNIT(LENGTH_MEASURE(0.005),#549,
'DISTANCE_ACCURACY_VALUE','Maximum Tolerance applied to model');
#545=UNCERTAINTY_MEASURE_WITH_UNIT(LENGTH_MEASURE(0.005),#549,
'DISTANCE_ACCURACY_VALUE','Maximum Tolerance applied to model');
#546=UNCERTAINTY_MEASURE_WITH_UNIT(LENGTH_MEASURE(0.005),#549,
'DISTANCE_ACCURACY_VALUE','Maximum Tolerance applied to model');
#547=(
NAMED_UNIT(*)
SI_UNIT($,.STERADIAN.)
SOLID_ANGLE_UNIT()
);
#548=(
NAMED_UNIT(*)
PLANE_ANGLE_UNIT()
SI_UNIT($,.RADIAN.)
);
#549=(
LENGTH_UNIT()
NAMED_UNIT(*)
SI_UNIT(.MILLI.,.METRE.)
);
#550=PRODUCT_DEFINITION_SHAPE('','',#572);
#551=PRODUCT_DEFINITION_SHAPE('','',#573);
#552=PRODUCT_DEFINITION_SHAPE(' ','NAUO PRDDFN',#39);
#553=PRODUCT_DEFINITION_SHAPE('','',#574);
#554=PRODUCT_DEFINITION_SHAPE(' ','NAUO PRDDFN',#40);
#555=PRODUCT_DEFINITION_SHAPE('','',#575);
#556=PRODUCT_DEFINITION_SHAPE(' ','NAUO PRDDFN',#41);
#557=PRODUCT_DEFINITION_SHAPE(' ','NAUO PRDDFN',#42);
#558=PRODUCT_DEFINITION_SHAPE(' ','NAUO PRDDFN',#43);
#559=PRODUCT_DEFINITION_SHAPE(' ','NAUO PRDDFN',#44);
#560=PRODUCT_DEFINITION_SHAPE(' ','NAUO PRDDFN',#45);
#561=PRODUCT_DEFINITION_SHAPE(' ','NAUO PRDDFN',#46);
#562=PRODUCT_DEFINITION_SHAPE(' ','NAUO PRDDFN',#47);
#563=PRODUCT_DEFINITION_SHAPE(' ','NAUO PRDDFN',#48);
#564=PRODUCT_DEFINITION_SHAPE(' ','NAUO PRDDFN',#49);
#565=PRODUCT_DEFINITION_SHAPE(' ','NAUO PRDDFN',#50);
#566=PRODUCT_DEFINITION_SHAPE(' ','NAUO PRDDFN',#51);
#567=PRODUCT_DEFINITION_SHAPE(' ','NAUO PRDDFN',#52);
#568=PRODUCT_DEFINITION_SHAPE(' ','NAUO PRDDFN',#53);
#569=PRODUCT_DEFINITION_SHAPE(' ','NAUO PRDDFN',#54);
#570=PRODUCT_DEFINITION_SHAPE(' ','NAUO PRDDFN',#55);
#571=PRODUCT_DEFINITION_SHAPE(' ','NAUO PRDDFN',#56);
#572=PRODUCT_DEFINITION('','',#580,#576);
#573=PRODUCT_DEFINITION('','',#581,#577);
#574=PRODUCT_DEFINITION('','',#582,#578);
#575=PRODUCT_DEFINITION('','',#583,#579);
#576=PRODUCT_DEFINITION_CONTEXT('',#601,'design');
#577=PRODUCT_DEFINITION_CONTEXT('',#601,'design');
#578=PRODUCT_DEFINITION_CONTEXT('',#601,'design');
#579=PRODUCT_DEFINITION_CONTEXT('',#601,'design');
#580=PRODUCT_DEFINITION_FORMATION_WITH_SPECIFIED_SOURCE('','',#588,
 .NOT_KNOWN.);
#581=PRODUCT_DEFINITION_FORMATION_WITH_SPECIFIED_SOURCE('','',#589,
 .NOT_KNOWN.);
#582=PRODUCT_DEFINITION_FORMATION_WITH_SPECIFIED_SOURCE('','',#590,
 .NOT_KNOWN.);
#583=PRODUCT_DEFINITION_FORMATION_WITH_SPECIFIED_SOURCE('','',#591,
 .NOT_KNOWN.);
#584=PRODUCT_RELATED_PRODUCT_CATEGORY('','',(#588));
#585=PRODUCT_RELATED_PRODUCT_CATEGORY('','',(#589));
#586=PRODUCT_RELATED_PRODUCT_CATEGORY('','',(#590));
#587=PRODUCT_RELATED_PRODUCT_CATEGORY('','',(#591));
#588=PRODUCT('1201S','1201S','1201S',(#596));
#589=PRODUCT('1201S Inner ring','1201S Inner ring','1201S Inner ring',(#597));
#590=PRODUCT('1201S Outer ring','1201S Outer ring','1201S Outer ring',(#598));
#591=PRODUCT('1201S Ball','1201S Ball','1201S Ball',(#599));
#592=PRODUCT_CATEGORY('','');
#593=PRODUCT_CATEGORY('','');
#594=PRODUCT_CATEGORY('','');
#595=PRODUCT_CATEGORY('','');
#596=PRODUCT_CONTEXT('',#601,'mechanical');
#597=PRODUCT_CONTEXT('',#601,'mechanical');
#598=PRODUCT_CONTEXT('',#601,'mechanical');
#599=PRODUCT_CONTEXT('',#601,'mechanical');
#600=APPLICATION_PROTOCOL_DEFINITION('international standard',
'automotive_design',2010,#601);
#601=APPLICATION_CONTEXT(
'core data for automotive mechanical design processes');
ENDSEC;
END-ISO-10303-21;
