ISO-10303-21;
HEADER;
/* Generated by software containing ST-Developer
 * from STEP Tools, Inc. (www.steptools.com) 
 */
/* OPTION: using custom renumber hook */

FILE_DESCRIPTION(
/* description */ ('STEP AP214'),
/* implementation_level */ '2;1');

FILE_NAME(
/* name */ 'NJ2206EA',
/* time_stamp */ '2024-10-30T14:06:00+01:00',
/* author */ ('License CC BY-ND 4.0'),
/* organization */ ('CADENAS'),
/* preprocessor_version */ 'ST-DEVELOPER v19.3',
/* originating_system */ 'PARTsolutions',
/* authorisation */ '  ');

FILE_SCHEMA (('AUTOMOTIVE_DESIGN {1 0 10303 214 3 1 1}'));
ENDSEC;

DATA;
#10=PROPERTY_DEFINITION_REPRESENTATION(#14,#12);
#11=PROPERTY_DEFINITION_REPRESENTATION(#15,#13);
#12=REPRESENTATION('',(#16),#587);
#13=REPRESENTATION('',(#17),#587);
#14=PROPERTY_DEFINITION('pmi validation property','',#598);
#15=PROPERTY_DEFINITION('pmi validation property','',#598);
#16=VALUE_REPRESENTATION_ITEM('number of annotations',COUNT_MEASURE(0.));
#17=VALUE_REPRESENTATION_ITEM('number of views',COUNT_MEASURE(0.));
#18=CONTEXT_DEPENDENT_SHAPE_REPRESENTATION(#42,#600);
#19=CONTEXT_DEPENDENT_SHAPE_REPRESENTATION(#43,#602);
#20=CONTEXT_DEPENDENT_SHAPE_REPRESENTATION(#44,#604);
#21=CONTEXT_DEPENDENT_SHAPE_REPRESENTATION(#45,#605);
#22=CONTEXT_DEPENDENT_SHAPE_REPRESENTATION(#46,#606);
#23=CONTEXT_DEPENDENT_SHAPE_REPRESENTATION(#47,#607);
#24=CONTEXT_DEPENDENT_SHAPE_REPRESENTATION(#48,#608);
#25=CONTEXT_DEPENDENT_SHAPE_REPRESENTATION(#49,#609);
#26=CONTEXT_DEPENDENT_SHAPE_REPRESENTATION(#50,#610);
#27=CONTEXT_DEPENDENT_SHAPE_REPRESENTATION(#51,#611);
#28=CONTEXT_DEPENDENT_SHAPE_REPRESENTATION(#52,#612);
#29=CONTEXT_DEPENDENT_SHAPE_REPRESENTATION(#53,#613);
#30=NEXT_ASSEMBLY_USAGE_OCCURRENCE('NAUO1','NJ2206EA Inner ring',
'NJ2206EA Inner ring',#614,#615,'');
#31=NEXT_ASSEMBLY_USAGE_OCCURRENCE('NAUO2','NJ2206EA Outer ring',
'NJ2206EA Outer ring',#614,#616,'');
#32=NEXT_ASSEMBLY_USAGE_OCCURRENCE('NAUO3','NJ2206EA Roller',
'NJ2206EA Roller',#614,#617,'');
#33=NEXT_ASSEMBLY_USAGE_OCCURRENCE('NAUO4','NJ2206EA Roller',
'NJ2206EA Roller',#614,#617,'');
#34=NEXT_ASSEMBLY_USAGE_OCCURRENCE('NAUO5','NJ2206EA Roller',
'NJ2206EA Roller',#614,#617,'');
#35=NEXT_ASSEMBLY_USAGE_OCCURRENCE('NAUO6','NJ2206EA Roller',
'NJ2206EA Roller',#614,#617,'');
#36=NEXT_ASSEMBLY_USAGE_OCCURRENCE('NAUO7','NJ2206EA Roller',
'NJ2206EA Roller',#614,#617,'');
#37=NEXT_ASSEMBLY_USAGE_OCCURRENCE('NAUO8','NJ2206EA Roller',
'NJ2206EA Roller',#614,#617,'');
#38=NEXT_ASSEMBLY_USAGE_OCCURRENCE('NAUO9','NJ2206EA Roller',
'NJ2206EA Roller',#614,#617,'');
#39=NEXT_ASSEMBLY_USAGE_OCCURRENCE('NAUO10','NJ2206EA Roller',
'NJ2206EA Roller',#614,#617,'');
#40=NEXT_ASSEMBLY_USAGE_OCCURRENCE('NAUO11','NJ2206EA Roller',
'NJ2206EA Roller',#614,#617,'');
#41=NEXT_ASSEMBLY_USAGE_OCCURRENCE('NAUO12','NJ2206EA Roller',
'NJ2206EA Roller',#614,#617,'');
#42=(
REPRESENTATION_RELATIONSHIP(' ',' ',#338,#337)
REPRESENTATION_RELATIONSHIP_WITH_TRANSFORMATION(#54)
SHAPE_REPRESENTATION_RELATIONSHIP()
);
#43=(
REPRESENTATION_RELATIONSHIP(' ',' ',#339,#337)
REPRESENTATION_RELATIONSHIP_WITH_TRANSFORMATION(#55)
SHAPE_REPRESENTATION_RELATIONSHIP()
);
#44=(
REPRESENTATION_RELATIONSHIP(' ',' ',#340,#337)
REPRESENTATION_RELATIONSHIP_WITH_TRANSFORMATION(#56)
SHAPE_REPRESENTATION_RELATIONSHIP()
);
#45=(
REPRESENTATION_RELATIONSHIP(' ',' ',#340,#337)
REPRESENTATION_RELATIONSHIP_WITH_TRANSFORMATION(#57)
SHAPE_REPRESENTATION_RELATIONSHIP()
);
#46=(
REPRESENTATION_RELATIONSHIP(' ',' ',#340,#337)
REPRESENTATION_RELATIONSHIP_WITH_TRANSFORMATION(#58)
SHAPE_REPRESENTATION_RELATIONSHIP()
);
#47=(
REPRESENTATION_RELATIONSHIP(' ',' ',#340,#337)
REPRESENTATION_RELATIONSHIP_WITH_TRANSFORMATION(#59)
SHAPE_REPRESENTATION_RELATIONSHIP()
);
#48=(
REPRESENTATION_RELATIONSHIP(' ',' ',#340,#337)
REPRESENTATION_RELATIONSHIP_WITH_TRANSFORMATION(#60)
SHAPE_REPRESENTATION_RELATIONSHIP()
);
#49=(
REPRESENTATION_RELATIONSHIP(' ',' ',#340,#337)
REPRESENTATION_RELATIONSHIP_WITH_TRANSFORMATION(#61)
SHAPE_REPRESENTATION_RELATIONSHIP()
);
#50=(
REPRESENTATION_RELATIONSHIP(' ',' ',#340,#337)
REPRESENTATION_RELATIONSHIP_WITH_TRANSFORMATION(#62)
SHAPE_REPRESENTATION_RELATIONSHIP()
);
#51=(
REPRESENTATION_RELATIONSHIP(' ',' ',#340,#337)
REPRESENTATION_RELATIONSHIP_WITH_TRANSFORMATION(#63)
SHAPE_REPRESENTATION_RELATIONSHIP()
);
#52=(
REPRESENTATION_RELATIONSHIP(' ',' ',#340,#337)
REPRESENTATION_RELATIONSHIP_WITH_TRANSFORMATION(#64)
SHAPE_REPRESENTATION_RELATIONSHIP()
);
#53=(
REPRESENTATION_RELATIONSHIP(' ',' ',#340,#337)
REPRESENTATION_RELATIONSHIP_WITH_TRANSFORMATION(#65)
SHAPE_REPRESENTATION_RELATIONSHIP()
);
#54=ITEM_DEFINED_TRANSFORMATION(' ',' ',#341,#360);
#55=ITEM_DEFINED_TRANSFORMATION(' ',' ',#341,#381);
#56=ITEM_DEFINED_TRANSFORMATION(' ',' ',#341,#387);
#57=ITEM_DEFINED_TRANSFORMATION(' ',' ',#341,#388);
#58=ITEM_DEFINED_TRANSFORMATION(' ',' ',#341,#389);
#59=ITEM_DEFINED_TRANSFORMATION(' ',' ',#341,#390);
#60=ITEM_DEFINED_TRANSFORMATION(' ',' ',#341,#391);
#61=ITEM_DEFINED_TRANSFORMATION(' ',' ',#341,#392);
#62=ITEM_DEFINED_TRANSFORMATION(' ',' ',#341,#393);
#63=ITEM_DEFINED_TRANSFORMATION(' ',' ',#341,#394);
#64=ITEM_DEFINED_TRANSFORMATION(' ',' ',#341,#395);
#65=ITEM_DEFINED_TRANSFORMATION(' ',' ',#341,#396);
#66=SHAPE_REPRESENTATION_RELATIONSHIP('','',#338,#69);
#67=SHAPE_REPRESENTATION_RELATIONSHIP('','',#339,#70);
#68=SHAPE_REPRESENTATION_RELATIONSHIP('','',#340,#71);
#69=ADVANCED_BREP_SHAPE_REPRESENTATION('',(#330),#588);
#70=ADVANCED_BREP_SHAPE_REPRESENTATION('',(#331),#589);
#71=ADVANCED_BREP_SHAPE_REPRESENTATION('',(#332),#590);
#72=CONICAL_SURFACE('',#353,17.99024,0.145672236642627);
#73=CYLINDRICAL_SURFACE('',#347,15.);
#74=CYLINDRICAL_SURFACE('',#355,18.75);
#75=CYLINDRICAL_SURFACE('',#359,20.55);
#76=CYLINDRICAL_SURFACE('',#366,25.4);
#77=CYLINDRICAL_SURFACE('',#370,27.04632);
#78=CYLINDRICAL_SURFACE('',#374,25.4);
#79=CYLINDRICAL_SURFACE('',#380,31.);
#80=CYLINDRICAL_SURFACE('',#384,4.147745184);
#81=TOROIDAL_SURFACE('',#345,16.,1.);
#82=TOROIDAL_SURFACE('',#349,15.6,0.600000000000009);
#83=TOROIDAL_SURFACE('',#361,30.,1.);
#84=TOROIDAL_SURFACE('',#378,30.,1.);
#85=ORIENTED_EDGE('',*,*,#127,.T.);
#86=ORIENTED_EDGE('',*,*,#128,.F.);
#87=ORIENTED_EDGE('',*,*,#129,.T.);
#88=ORIENTED_EDGE('',*,*,#127,.F.);
#89=ORIENTED_EDGE('',*,*,#130,.T.);
#90=ORIENTED_EDGE('',*,*,#129,.F.);
#91=ORIENTED_EDGE('',*,*,#131,.T.);
#92=ORIENTED_EDGE('',*,*,#130,.F.);
#93=ORIENTED_EDGE('',*,*,#132,.T.);
#94=ORIENTED_EDGE('',*,*,#131,.F.);
#95=ORIENTED_EDGE('',*,*,#133,.T.);
#96=ORIENTED_EDGE('',*,*,#132,.F.);
#97=ORIENTED_EDGE('',*,*,#134,.T.);
#98=ORIENTED_EDGE('',*,*,#133,.F.);
#99=ORIENTED_EDGE('',*,*,#135,.T.);
#100=ORIENTED_EDGE('',*,*,#134,.F.);
#101=ORIENTED_EDGE('',*,*,#128,.T.);
#102=ORIENTED_EDGE('',*,*,#135,.F.);
#103=ORIENTED_EDGE('',*,*,#136,.T.);
#104=ORIENTED_EDGE('',*,*,#137,.F.);
#105=ORIENTED_EDGE('',*,*,#138,.T.);
#106=ORIENTED_EDGE('',*,*,#136,.F.);
#107=ORIENTED_EDGE('',*,*,#139,.T.);
#108=ORIENTED_EDGE('',*,*,#138,.F.);
#109=ORIENTED_EDGE('',*,*,#140,.T.);
#110=ORIENTED_EDGE('',*,*,#139,.F.);
#111=ORIENTED_EDGE('',*,*,#141,.T.);
#112=ORIENTED_EDGE('',*,*,#140,.F.);
#113=ORIENTED_EDGE('',*,*,#142,.T.);
#114=ORIENTED_EDGE('',*,*,#141,.F.);
#115=ORIENTED_EDGE('',*,*,#143,.T.);
#116=ORIENTED_EDGE('',*,*,#142,.F.);
#117=ORIENTED_EDGE('',*,*,#144,.T.);
#118=ORIENTED_EDGE('',*,*,#143,.F.);
#119=ORIENTED_EDGE('',*,*,#145,.T.);
#120=ORIENTED_EDGE('',*,*,#144,.F.);
#121=ORIENTED_EDGE('',*,*,#137,.T.);
#122=ORIENTED_EDGE('',*,*,#145,.F.);
#123=ORIENTED_EDGE('',*,*,#146,.F.);
#124=ORIENTED_EDGE('',*,*,#147,.F.);
#125=ORIENTED_EDGE('',*,*,#146,.T.);
#126=ORIENTED_EDGE('',*,*,#147,.T.);
#127=EDGE_CURVE('',#148,#148,#169,.T.);
#128=EDGE_CURVE('',#149,#149,#170,.T.);
#129=EDGE_CURVE('',#150,#150,#171,.T.);
#130=EDGE_CURVE('',#151,#151,#172,.T.);
#131=EDGE_CURVE('',#152,#152,#173,.T.);
#132=EDGE_CURVE('',#153,#153,#174,.T.);
#133=EDGE_CURVE('',#154,#154,#175,.T.);
#134=EDGE_CURVE('',#155,#155,#176,.T.);
#135=EDGE_CURVE('',#156,#156,#177,.T.);
#136=EDGE_CURVE('',#157,#157,#178,.T.);
#137=EDGE_CURVE('',#158,#158,#179,.T.);
#138=EDGE_CURVE('',#159,#159,#180,.T.);
#139=EDGE_CURVE('',#160,#160,#181,.T.);
#140=EDGE_CURVE('',#161,#161,#182,.T.);
#141=EDGE_CURVE('',#162,#162,#183,.T.);
#142=EDGE_CURVE('',#163,#163,#184,.T.);
#143=EDGE_CURVE('',#164,#164,#185,.T.);
#144=EDGE_CURVE('',#165,#165,#186,.T.);
#145=EDGE_CURVE('',#166,#166,#187,.T.);
#146=EDGE_CURVE('',#167,#167,#188,.T.);
#147=EDGE_CURVE('',#168,#168,#189,.T.);
#148=VERTEX_POINT('',#512);
#149=VERTEX_POINT('',#514);
#150=VERTEX_POINT('',#517);
#151=VERTEX_POINT('',#520);
#152=VERTEX_POINT('',#523);
#153=VERTEX_POINT('',#526);
#154=VERTEX_POINT('',#529);
#155=VERTEX_POINT('',#532);
#156=VERTEX_POINT('',#535);
#157=VERTEX_POINT('',#540);
#158=VERTEX_POINT('',#542);
#159=VERTEX_POINT('',#545);
#160=VERTEX_POINT('',#548);
#161=VERTEX_POINT('',#551);
#162=VERTEX_POINT('',#554);
#163=VERTEX_POINT('',#557);
#164=VERTEX_POINT('',#560);
#165=VERTEX_POINT('',#563);
#166=VERTEX_POINT('',#566);
#167=VERTEX_POINT('',#571);
#168=VERTEX_POINT('',#574);
#169=CIRCLE('',#343,16.);
#170=CIRCLE('',#344,20.55);
#171=CIRCLE('',#346,15.);
#172=CIRCLE('',#348,15.);
#173=CIRCLE('',#350,15.6);
#174=CIRCLE('',#352,17.99024);
#175=CIRCLE('',#354,18.75);
#176=CIRCLE('',#356,18.75);
#177=CIRCLE('',#358,20.55);
#178=CIRCLE('',#362,30.);
#179=CIRCLE('',#363,31.);
#180=CIRCLE('',#365,25.4);
#181=CIRCLE('',#367,25.4);
#182=CIRCLE('',#369,27.04632);
#183=CIRCLE('',#371,27.04632);
#184=CIRCLE('',#373,25.4);
#185=CIRCLE('',#375,25.4);
#186=CIRCLE('',#377,30.);
#187=CIRCLE('',#379,31.);
#188=CIRCLE('',#383,4.147745184);
#189=CIRCLE('',#385,4.147745184);
#190=EDGE_LOOP('',(#85));
#191=EDGE_LOOP('',(#86));
#192=EDGE_LOOP('',(#87));
#193=EDGE_LOOP('',(#88));
#194=EDGE_LOOP('',(#89));
#195=EDGE_LOOP('',(#90));
#196=EDGE_LOOP('',(#91));
#197=EDGE_LOOP('',(#92));
#198=EDGE_LOOP('',(#93));
#199=EDGE_LOOP('',(#94));
#200=EDGE_LOOP('',(#95));
#201=EDGE_LOOP('',(#96));
#202=EDGE_LOOP('',(#97));
#203=EDGE_LOOP('',(#98));
#204=EDGE_LOOP('',(#99));
#205=EDGE_LOOP('',(#100));
#206=EDGE_LOOP('',(#101));
#207=EDGE_LOOP('',(#102));
#208=EDGE_LOOP('',(#103));
#209=EDGE_LOOP('',(#104));
#210=EDGE_LOOP('',(#105));
#211=EDGE_LOOP('',(#106));
#212=EDGE_LOOP('',(#107));
#213=EDGE_LOOP('',(#108));
#214=EDGE_LOOP('',(#109));
#215=EDGE_LOOP('',(#110));
#216=EDGE_LOOP('',(#111));
#217=EDGE_LOOP('',(#112));
#218=EDGE_LOOP('',(#113));
#219=EDGE_LOOP('',(#114));
#220=EDGE_LOOP('',(#115));
#221=EDGE_LOOP('',(#116));
#222=EDGE_LOOP('',(#117));
#223=EDGE_LOOP('',(#118));
#224=EDGE_LOOP('',(#119));
#225=EDGE_LOOP('',(#120));
#226=EDGE_LOOP('',(#121));
#227=EDGE_LOOP('',(#122));
#228=EDGE_LOOP('',(#123));
#229=EDGE_LOOP('',(#124));
#230=EDGE_LOOP('',(#125));
#231=EDGE_LOOP('',(#126));
#232=FACE_BOUND('',#190,.T.);
#233=FACE_BOUND('',#191,.T.);
#234=FACE_BOUND('',#192,.T.);
#235=FACE_BOUND('',#193,.T.);
#236=FACE_BOUND('',#194,.T.);
#237=FACE_BOUND('',#195,.T.);
#238=FACE_BOUND('',#196,.T.);
#239=FACE_BOUND('',#197,.T.);
#240=FACE_BOUND('',#198,.T.);
#241=FACE_BOUND('',#199,.T.);
#242=FACE_BOUND('',#200,.T.);
#243=FACE_BOUND('',#201,.T.);
#244=FACE_BOUND('',#202,.T.);
#245=FACE_BOUND('',#203,.T.);
#246=FACE_BOUND('',#204,.T.);
#247=FACE_BOUND('',#205,.T.);
#248=FACE_BOUND('',#206,.T.);
#249=FACE_BOUND('',#207,.T.);
#250=FACE_BOUND('',#208,.T.);
#251=FACE_BOUND('',#209,.T.);
#252=FACE_BOUND('',#210,.T.);
#253=FACE_BOUND('',#211,.T.);
#254=FACE_BOUND('',#212,.T.);
#255=FACE_BOUND('',#213,.T.);
#256=FACE_BOUND('',#214,.T.);
#257=FACE_BOUND('',#215,.T.);
#258=FACE_BOUND('',#216,.T.);
#259=FACE_BOUND('',#217,.T.);
#260=FACE_BOUND('',#218,.T.);
#261=FACE_BOUND('',#219,.T.);
#262=FACE_BOUND('',#220,.T.);
#263=FACE_BOUND('',#221,.T.);
#264=FACE_BOUND('',#222,.T.);
#265=FACE_BOUND('',#223,.T.);
#266=FACE_BOUND('',#224,.T.);
#267=FACE_BOUND('',#225,.T.);
#268=FACE_BOUND('',#226,.T.);
#269=FACE_BOUND('',#227,.T.);
#270=FACE_BOUND('',#228,.T.);
#271=FACE_BOUND('',#229,.T.);
#272=FACE_BOUND('',#230,.T.);
#273=FACE_BOUND('',#231,.T.);
#274=PLANE('',#342);
#275=PLANE('',#351);
#276=PLANE('',#357);
#277=PLANE('',#364);
#278=PLANE('',#368);
#279=PLANE('',#372);
#280=PLANE('',#376);
#281=PLANE('',#382);
#282=PLANE('',#386);
#283=ADVANCED_FACE('',(#232,#233),#274,.T.);
#284=ADVANCED_FACE('',(#234,#235),#81,.T.);
#285=ADVANCED_FACE('',(#236,#237),#73,.F.);
#286=ADVANCED_FACE('',(#238,#239),#82,.T.);
#287=ADVANCED_FACE('',(#240,#241),#275,.T.);
#288=ADVANCED_FACE('',(#242,#243),#72,.T.);
#289=ADVANCED_FACE('',(#244,#245),#74,.T.);
#290=ADVANCED_FACE('',(#246,#247),#276,.T.);
#291=ADVANCED_FACE('',(#248,#249),#75,.T.);
#292=ADVANCED_FACE('',(#250,#251),#83,.T.);
#293=ADVANCED_FACE('',(#252,#253),#277,.T.);
#294=ADVANCED_FACE('',(#254,#255),#76,.F.);
#295=ADVANCED_FACE('',(#256,#257),#278,.T.);
#296=ADVANCED_FACE('',(#258,#259),#77,.F.);
#297=ADVANCED_FACE('',(#260,#261),#279,.T.);
#298=ADVANCED_FACE('',(#262,#263),#78,.F.);
#299=ADVANCED_FACE('',(#264,#265),#280,.T.);
#300=ADVANCED_FACE('',(#266,#267),#84,.T.);
#301=ADVANCED_FACE('',(#268,#269),#79,.T.);
#302=ADVANCED_FACE('',(#270),#281,.F.);
#303=ADVANCED_FACE('',(#271,#272),#80,.T.);
#304=ADVANCED_FACE('',(#273),#282,.F.);
#305=CLOSED_SHELL('',(#283,#284,#285,#286,#287,#288,#289,#290,#291));
#306=CLOSED_SHELL('',(#292,#293,#294,#295,#296,#297,#298,#299,#300,#301));
#307=CLOSED_SHELL('',(#302,#303,#304));
#308=STYLED_ITEM('',(#311),#330);
#309=STYLED_ITEM('',(#312),#331);
#310=STYLED_ITEM('',(#313),#332);
#311=PRESENTATION_STYLE_ASSIGNMENT((#314));
#312=PRESENTATION_STYLE_ASSIGNMENT((#315));
#313=PRESENTATION_STYLE_ASSIGNMENT((#316));
#314=SURFACE_STYLE_USAGE(.BOTH.,#317);
#315=SURFACE_STYLE_USAGE(.BOTH.,#318);
#316=SURFACE_STYLE_USAGE(.BOTH.,#319);
#317=SURFACE_SIDE_STYLE('',(#320));
#318=SURFACE_SIDE_STYLE('',(#321));
#319=SURFACE_SIDE_STYLE('',(#322));
#320=SURFACE_STYLE_FILL_AREA(#323);
#321=SURFACE_STYLE_FILL_AREA(#324);
#322=SURFACE_STYLE_FILL_AREA(#325);
#323=FILL_AREA_STYLE('',(#326));
#324=FILL_AREA_STYLE('',(#327));
#325=FILL_AREA_STYLE('',(#328));
#326=FILL_AREA_STYLE_COLOUR('',#329);
#327=FILL_AREA_STYLE_COLOUR('',#329);
#328=FILL_AREA_STYLE_COLOUR('',#329);
#329=COLOUR_RGB('',0.689999997615814,0.689999997615814,0.689999997615814);
#330=MANIFOLD_SOLID_BREP('NJ2206EA Inner ring',#305);
#331=MANIFOLD_SOLID_BREP('NJ2206EA Outer ring',#306);
#332=MANIFOLD_SOLID_BREP('NJ2206EA Roller',#307);
#333=SHAPE_DEFINITION_REPRESENTATION(#598,#337);
#334=SHAPE_DEFINITION_REPRESENTATION(#599,#338);
#335=SHAPE_DEFINITION_REPRESENTATION(#601,#339);
#336=SHAPE_DEFINITION_REPRESENTATION(#603,#340);
#337=SHAPE_REPRESENTATION('NJ2206EA',(#341,#360,#381,#387,#388,#389,#390,
#391,#392,#393,#394,#395,#396),#587);
#338=SHAPE_REPRESENTATION('NJ2206EA Inner ring',(#341),#588);
#339=SHAPE_REPRESENTATION('NJ2206EA Outer ring',(#341),#589);
#340=SHAPE_REPRESENTATION('NJ2206EA Roller',(#341),#590);
#341=AXIS2_PLACEMENT_3D('',#509,#397,#398);
#342=AXIS2_PLACEMENT_3D('',#510,#399,#400);
#343=AXIS2_PLACEMENT_3D('',#511,#401,#402);
#344=AXIS2_PLACEMENT_3D('',#513,#403,#404);
#345=AXIS2_PLACEMENT_3D('',#515,#405,#406);
#346=AXIS2_PLACEMENT_3D('',#516,#407,#408);
#347=AXIS2_PLACEMENT_3D('',#518,#409,#410);
#348=AXIS2_PLACEMENT_3D('',#519,#411,#412);
#349=AXIS2_PLACEMENT_3D('',#521,#413,#414);
#350=AXIS2_PLACEMENT_3D('',#522,#415,#416);
#351=AXIS2_PLACEMENT_3D('',#524,#417,#418);
#352=AXIS2_PLACEMENT_3D('',#525,#419,#420);
#353=AXIS2_PLACEMENT_3D('',#527,#421,#422);
#354=AXIS2_PLACEMENT_3D('',#528,#423,#424);
#355=AXIS2_PLACEMENT_3D('',#530,#425,#426);
#356=AXIS2_PLACEMENT_3D('',#531,#427,#428);
#357=AXIS2_PLACEMENT_3D('',#533,#429,#430);
#358=AXIS2_PLACEMENT_3D('',#534,#431,#432);
#359=AXIS2_PLACEMENT_3D('',#536,#433,#434);
#360=AXIS2_PLACEMENT_3D('',#537,#435,#436);
#361=AXIS2_PLACEMENT_3D('',#538,#437,#438);
#362=AXIS2_PLACEMENT_3D('',#539,#439,#440);
#363=AXIS2_PLACEMENT_3D('',#541,#441,#442);
#364=AXIS2_PLACEMENT_3D('',#543,#443,#444);
#365=AXIS2_PLACEMENT_3D('',#544,#445,#446);
#366=AXIS2_PLACEMENT_3D('',#546,#447,#448);
#367=AXIS2_PLACEMENT_3D('',#547,#449,#450);
#368=AXIS2_PLACEMENT_3D('',#549,#451,#452);
#369=AXIS2_PLACEMENT_3D('',#550,#453,#454);
#370=AXIS2_PLACEMENT_3D('',#552,#455,#456);
#371=AXIS2_PLACEMENT_3D('',#553,#457,#458);
#372=AXIS2_PLACEMENT_3D('',#555,#459,#460);
#373=AXIS2_PLACEMENT_3D('',#556,#461,#462);
#374=AXIS2_PLACEMENT_3D('',#558,#463,#464);
#375=AXIS2_PLACEMENT_3D('',#559,#465,#466);
#376=AXIS2_PLACEMENT_3D('',#561,#467,#468);
#377=AXIS2_PLACEMENT_3D('',#562,#469,#470);
#378=AXIS2_PLACEMENT_3D('',#564,#471,#472);
#379=AXIS2_PLACEMENT_3D('',#565,#473,#474);
#380=AXIS2_PLACEMENT_3D('',#567,#475,#476);
#381=AXIS2_PLACEMENT_3D('',#568,#477,#478);
#382=AXIS2_PLACEMENT_3D('',#569,#479,#480);
#383=AXIS2_PLACEMENT_3D('',#570,#481,#482);
#384=AXIS2_PLACEMENT_3D('',#572,#483,#484);
#385=AXIS2_PLACEMENT_3D('',#573,#485,#486);
#386=AXIS2_PLACEMENT_3D('',#575,#487,#488);
#387=AXIS2_PLACEMENT_3D('',#576,#489,#490);
#388=AXIS2_PLACEMENT_3D('',#577,#491,#492);
#389=AXIS2_PLACEMENT_3D('',#578,#493,#494);
#390=AXIS2_PLACEMENT_3D('',#579,#495,#496);
#391=AXIS2_PLACEMENT_3D('',#580,#497,#498);
#392=AXIS2_PLACEMENT_3D('',#581,#499,#500);
#393=AXIS2_PLACEMENT_3D('',#582,#501,#502);
#394=AXIS2_PLACEMENT_3D('',#583,#503,#504);
#395=AXIS2_PLACEMENT_3D('',#584,#505,#506);
#396=AXIS2_PLACEMENT_3D('',#585,#507,#508);
#397=DIRECTION('',(0.,0.,1.));
#398=DIRECTION('',(1.,0.,0.));
#399=DIRECTION('',(-1.,0.,0.));
#400=DIRECTION('',(0.,0.,1.));
#401=DIRECTION('',(1.,0.,0.));
#402=DIRECTION('',(0.,0.,-1.));
#403=DIRECTION('',(1.,0.,0.));
#404=DIRECTION('',(0.,0.,-1.));
#405=DIRECTION('',(1.,0.,0.));
#406=DIRECTION('',(0.,0.,-1.));
#407=DIRECTION('',(1.,0.,0.));
#408=DIRECTION('',(0.,0.,-1.));
#409=DIRECTION('',(1.,0.,0.));
#410=DIRECTION('',(0.,0.,-1.));
#411=DIRECTION('',(1.,0.,0.));
#412=DIRECTION('',(0.,0.,-1.));
#413=DIRECTION('',(1.,0.,0.));
#414=DIRECTION('',(0.,0.,-1.));
#415=DIRECTION('',(1.,0.,0.));
#416=DIRECTION('',(0.,0.,-1.));
#417=DIRECTION('',(1.,0.,0.));
#418=DIRECTION('',(0.,0.,-1.));
#419=DIRECTION('',(1.,0.,0.));
#420=DIRECTION('',(0.,0.,-1.));
#421=DIRECTION('',(-1.,0.,0.));
#422=DIRECTION('',(0.,0.,1.));
#423=DIRECTION('',(1.,0.,0.));
#424=DIRECTION('',(0.,0.,-1.));
#425=DIRECTION('',(1.,0.,0.));
#426=DIRECTION('',(0.,0.,-1.));
#427=DIRECTION('',(1.,0.,0.));
#428=DIRECTION('',(0.,0.,-1.));
#429=DIRECTION('',(1.,0.,0.));
#430=DIRECTION('',(0.,0.,-1.));
#431=DIRECTION('',(1.,0.,0.));
#432=DIRECTION('',(0.,0.,-1.));
#433=DIRECTION('',(1.,0.,0.));
#434=DIRECTION('',(0.,0.,-1.));
#435=DIRECTION('',(0.,0.,1.));
#436=DIRECTION('',(1.,0.,0.));
#437=DIRECTION('',(1.,0.,0.));
#438=DIRECTION('',(0.,0.,-1.));
#439=DIRECTION('',(1.,0.,0.));
#440=DIRECTION('',(0.,0.,-1.));
#441=DIRECTION('',(1.,0.,0.));
#442=DIRECTION('',(0.,0.,-1.));
#443=DIRECTION('',(-1.,0.,0.));
#444=DIRECTION('',(0.,0.,1.));
#445=DIRECTION('',(1.,0.,0.));
#446=DIRECTION('',(0.,0.,-1.));
#447=DIRECTION('',(1.,0.,0.));
#448=DIRECTION('',(0.,0.,-1.));
#449=DIRECTION('',(1.,0.,0.));
#450=DIRECTION('',(0.,0.,-1.));
#451=DIRECTION('',(1.,0.,0.));
#452=DIRECTION('',(0.,0.,-1.));
#453=DIRECTION('',(1.,0.,0.));
#454=DIRECTION('',(0.,0.,-1.));
#455=DIRECTION('',(1.,0.,0.));
#456=DIRECTION('',(0.,0.,-1.));
#457=DIRECTION('',(1.,0.,0.));
#458=DIRECTION('',(0.,0.,-1.));
#459=DIRECTION('',(-1.,0.,0.));
#460=DIRECTION('',(0.,0.,1.));
#461=DIRECTION('',(1.,0.,0.));
#462=DIRECTION('',(0.,0.,-1.));
#463=DIRECTION('',(1.,0.,0.));
#464=DIRECTION('',(0.,0.,-1.));
#465=DIRECTION('',(1.,0.,0.));
#466=DIRECTION('',(0.,0.,-1.));
#467=DIRECTION('',(1.,0.,0.));
#468=DIRECTION('',(0.,0.,-1.));
#469=DIRECTION('',(1.,0.,0.));
#470=DIRECTION('',(0.,0.,-1.));
#471=DIRECTION('',(1.,0.,0.));
#472=DIRECTION('',(0.,0.,-1.));
#473=DIRECTION('',(1.,0.,0.));
#474=DIRECTION('',(0.,0.,-1.));
#475=DIRECTION('',(1.,0.,0.));
#476=DIRECTION('',(0.,0.,-1.));
#477=DIRECTION('',(0.,0.,1.));
#478=DIRECTION('',(1.,0.,0.));
#479=DIRECTION('',(1.,0.,0.));
#480=DIRECTION('',(0.,0.,-1.));
#481=DIRECTION('',(1.,0.,0.));
#482=DIRECTION('',(0.,0.,-1.));
#483=DIRECTION('',(1.,0.,0.));
#484=DIRECTION('',(0.,0.,-1.));
#485=DIRECTION('',(1.,0.,0.));
#486=DIRECTION('',(0.,0.,-1.));
#487=DIRECTION('',(-1.,0.,0.));
#488=DIRECTION('',(0.,0.,1.));
#489=DIRECTION('',(0.,0.,1.));
#490=DIRECTION('',(1.,0.,0.));
#491=DIRECTION('',(0.,0.,1.));
#492=DIRECTION('',(1.,0.,0.));
#493=DIRECTION('',(0.,0.,1.));
#494=DIRECTION('',(1.,0.,0.));
#495=DIRECTION('',(0.,0.,1.));
#496=DIRECTION('',(1.,0.,0.));
#497=DIRECTION('',(0.,0.,1.));
#498=DIRECTION('',(1.,0.,0.));
#499=DIRECTION('',(0.,0.,1.));
#500=DIRECTION('',(1.,0.,0.));
#501=DIRECTION('',(0.,0.,1.));
#502=DIRECTION('',(1.,0.,0.));
#503=DIRECTION('',(0.,0.,1.));
#504=DIRECTION('',(1.,0.,0.));
#505=DIRECTION('',(0.,0.,1.));
#506=DIRECTION('',(1.,0.,0.));
#507=DIRECTION('',(0.,0.,1.));
#508=DIRECTION('',(1.,0.,0.));
#509=CARTESIAN_POINT('',(0.,0.,0.));
#510=CARTESIAN_POINT('',(0.,20.55,0.));
#511=CARTESIAN_POINT('',(0.,0.,0.));
#512=CARTESIAN_POINT('',(0.,0.,-16.));
#513=CARTESIAN_POINT('',(0.,0.,0.));
#514=CARTESIAN_POINT('',(0.,0.,-20.55));
#515=CARTESIAN_POINT('',(1.,0.,0.));
#516=CARTESIAN_POINT('',(1.,0.,0.));
#517=CARTESIAN_POINT('',(1.,0.,-15.));
#518=CARTESIAN_POINT('',(20.,0.,0.));
#519=CARTESIAN_POINT('',(19.4,0.,0.));
#520=CARTESIAN_POINT('',(19.4,0.,-15.));
#521=CARTESIAN_POINT('',(19.4,0.,0.));
#522=CARTESIAN_POINT('',(20.,0.,0.));
#523=CARTESIAN_POINT('',(20.,0.,-15.6));
#524=CARTESIAN_POINT('',(20.,15.6,0.));
#525=CARTESIAN_POINT('',(20.,0.,0.));
#526=CARTESIAN_POINT('',(20.,0.,-17.99024));
#527=CARTESIAN_POINT('',(20.,0.,0.));
#528=CARTESIAN_POINT('',(14.8214,0.,0.));
#529=CARTESIAN_POINT('',(14.8214,0.,-18.75));
#530=CARTESIAN_POINT('',(20.,0.,0.));
#531=CARTESIAN_POINT('',(5.1786,0.,0.));
#532=CARTESIAN_POINT('',(5.1786,0.,-18.75));
#533=CARTESIAN_POINT('',(5.1786,18.75,0.));
#534=CARTESIAN_POINT('',(5.1786,0.,0.));
#535=CARTESIAN_POINT('',(5.1786,0.,-20.55));
#536=CARTESIAN_POINT('',(20.,0.,0.));
#537=CARTESIAN_POINT('',(0.,0.,0.));
#538=CARTESIAN_POINT('',(0.999999999999999,0.,0.));
#539=CARTESIAN_POINT('',(0.,0.,0.));
#540=CARTESIAN_POINT('',(0.,0.,-30.));
#541=CARTESIAN_POINT('',(1.,0.,0.));
#542=CARTESIAN_POINT('',(1.,0.,-31.));
#543=CARTESIAN_POINT('',(0.,30.,0.));
#544=CARTESIAN_POINT('',(0.,0.,0.));
#545=CARTESIAN_POINT('',(0.,0.,-25.4));
#546=CARTESIAN_POINT('',(20.,0.,0.));
#547=CARTESIAN_POINT('',(5.1786,0.,0.));
#548=CARTESIAN_POINT('',(5.1786,0.,-25.4));
#549=CARTESIAN_POINT('',(5.1786,25.4,0.));
#550=CARTESIAN_POINT('',(5.1786,0.,0.));
#551=CARTESIAN_POINT('',(5.1786,0.,-27.04632));
#552=CARTESIAN_POINT('',(20.,0.,0.));
#553=CARTESIAN_POINT('',(14.8214,0.,0.));
#554=CARTESIAN_POINT('',(14.8214,0.,-27.04632));
#555=CARTESIAN_POINT('',(14.8214,27.04632,0.));
#556=CARTESIAN_POINT('',(14.8214,0.,0.));
#557=CARTESIAN_POINT('',(14.8214,0.,-25.4));
#558=CARTESIAN_POINT('',(20.,0.,0.));
#559=CARTESIAN_POINT('',(20.,0.,0.));
#560=CARTESIAN_POINT('',(20.,0.,-25.4));
#561=CARTESIAN_POINT('',(20.,25.4,0.));
#562=CARTESIAN_POINT('',(20.,0.,0.));
#563=CARTESIAN_POINT('',(20.,0.,-30.));
#564=CARTESIAN_POINT('',(19.,0.,0.));
#565=CARTESIAN_POINT('',(19.,0.,0.));
#566=CARTESIAN_POINT('',(19.,0.,-31.));
#567=CARTESIAN_POINT('',(20.,0.,0.));
#568=CARTESIAN_POINT('',(0.,0.,0.));
#569=CARTESIAN_POINT('',(0.096428,0.,0.));
#570=CARTESIAN_POINT('',(0.0964280000000008,0.,0.));
#571=CARTESIAN_POINT('',(0.0964280000000008,0.,-4.147745184));
#572=CARTESIAN_POINT('',(9.546372,0.,0.));
#573=CARTESIAN_POINT('',(9.546372,0.,0.));
#574=CARTESIAN_POINT('',(9.546372,0.,-4.147745184));
#575=CARTESIAN_POINT('',(9.546372,4.147745184,0.));
#576=CARTESIAN_POINT('',(5.1786,22.89816,0.));
#577=CARTESIAN_POINT('',(5.1786,18.5250005799166,13.4592007526334));
#578=CARTESIAN_POINT('',(5.1786,7.07592057991665,21.777444279169));
#579=CARTESIAN_POINT('',(5.1786,-7.07592057991665,21.777444279169));
#580=CARTESIAN_POINT('',(5.1786,-18.5250005799167,13.4592007526334));
#581=CARTESIAN_POINT('',(5.1786,-22.89816,-1.77635683940025E-15));
#582=CARTESIAN_POINT('',(5.1786,-18.5250005799167,-13.4592007526334));
#583=CARTESIAN_POINT('',(5.1786,-7.07592057991665,-21.777444279169));
#584=CARTESIAN_POINT('',(5.1786,7.07592057991665,-21.777444279169));
#585=CARTESIAN_POINT('',(5.1786,18.5250005799167,-13.4592007526334));
#586=MECHANICAL_DESIGN_GEOMETRIC_PRESENTATION_REPRESENTATION('',(#308,#309,
#310),#587);
#587=(
GEOMETRIC_REPRESENTATION_CONTEXT(3)
GLOBAL_UNCERTAINTY_ASSIGNED_CONTEXT((#591))
GLOBAL_UNIT_ASSIGNED_CONTEXT((#597,#596,#595))
REPRESENTATION_CONTEXT('NJ2206EA','TOP_LEVEL_ASSEMBLY_PART')
);
#588=(
GEOMETRIC_REPRESENTATION_CONTEXT(3)
GLOBAL_UNCERTAINTY_ASSIGNED_CONTEXT((#592))
GLOBAL_UNIT_ASSIGNED_CONTEXT((#597,#596,#595))
REPRESENTATION_CONTEXT('NJ2206EA Inner ring','COMPONENT_PART')
);
#589=(
GEOMETRIC_REPRESENTATION_CONTEXT(3)
GLOBAL_UNCERTAINTY_ASSIGNED_CONTEXT((#593))
GLOBAL_UNIT_ASSIGNED_CONTEXT((#597,#596,#595))
REPRESENTATION_CONTEXT('NJ2206EA Outer ring','COMPONENT_PART')
);
#590=(
GEOMETRIC_REPRESENTATION_CONTEXT(3)
GLOBAL_UNCERTAINTY_ASSIGNED_CONTEXT((#594))
GLOBAL_UNIT_ASSIGNED_CONTEXT((#597,#596,#595))
REPRESENTATION_CONTEXT('NJ2206EA Roller','COMPONENT_PART')
);
#591=UNCERTAINTY_MEASURE_WITH_UNIT(LENGTH_MEASURE(0.005),#597,
'DISTANCE_ACCURACY_VALUE','Maximum Tolerance applied to model');
#592=UNCERTAINTY_MEASURE_WITH_UNIT(LENGTH_MEASURE(0.005),#597,
'DISTANCE_ACCURACY_VALUE','Maximum Tolerance applied to model');
#593=UNCERTAINTY_MEASURE_WITH_UNIT(LENGTH_MEASURE(0.005),#597,
'DISTANCE_ACCURACY_VALUE','Maximum Tolerance applied to model');
#594=UNCERTAINTY_MEASURE_WITH_UNIT(LENGTH_MEASURE(0.005),#597,
'DISTANCE_ACCURACY_VALUE','Maximum Tolerance applied to model');
#595=(
NAMED_UNIT(*)
SI_UNIT($,.STERADIAN.)
SOLID_ANGLE_UNIT()
);
#596=(
NAMED_UNIT(*)
PLANE_ANGLE_UNIT()
SI_UNIT($,.RADIAN.)
);
#597=(
LENGTH_UNIT()
NAMED_UNIT(*)
SI_UNIT(.MILLI.,.METRE.)
);
#598=PRODUCT_DEFINITION_SHAPE('','',#614);
#599=PRODUCT_DEFINITION_SHAPE('','',#615);
#600=PRODUCT_DEFINITION_SHAPE(' ','NAUO PRDDFN',#30);
#601=PRODUCT_DEFINITION_SHAPE('','',#616);
#602=PRODUCT_DEFINITION_SHAPE(' ','NAUO PRDDFN',#31);
#603=PRODUCT_DEFINITION_SHAPE('','',#617);
#604=PRODUCT_DEFINITION_SHAPE(' ','NAUO PRDDFN',#32);
#605=PRODUCT_DEFINITION_SHAPE(' ','NAUO PRDDFN',#33);
#606=PRODUCT_DEFINITION_SHAPE(' ','NAUO PRDDFN',#34);
#607=PRODUCT_DEFINITION_SHAPE(' ','NAUO PRDDFN',#35);
#608=PRODUCT_DEFINITION_SHAPE(' ','NAUO PRDDFN',#36);
#609=PRODUCT_DEFINITION_SHAPE(' ','NAUO PRDDFN',#37);
#610=PRODUCT_DEFINITION_SHAPE(' ','NAUO PRDDFN',#38);
#611=PRODUCT_DEFINITION_SHAPE(' ','NAUO PRDDFN',#39);
#612=PRODUCT_DEFINITION_SHAPE(' ','NAUO PRDDFN',#40);
#613=PRODUCT_DEFINITION_SHAPE(' ','NAUO PRDDFN',#41);
#614=PRODUCT_DEFINITION('','',#622,#618);
#615=PRODUCT_DEFINITION('','',#623,#619);
#616=PRODUCT_DEFINITION('','',#624,#620);
#617=PRODUCT_DEFINITION('','',#625,#621);
#618=PRODUCT_DEFINITION_CONTEXT('',#643,'design');
#619=PRODUCT_DEFINITION_CONTEXT('',#643,'design');
#620=PRODUCT_DEFINITION_CONTEXT('',#643,'design');
#621=PRODUCT_DEFINITION_CONTEXT('',#643,'design');
#622=PRODUCT_DEFINITION_FORMATION_WITH_SPECIFIED_SOURCE('','',#630,
 .NOT_KNOWN.);
#623=PRODUCT_DEFINITION_FORMATION_WITH_SPECIFIED_SOURCE('','',#631,
 .NOT_KNOWN.);
#624=PRODUCT_DEFINITION_FORMATION_WITH_SPECIFIED_SOURCE('','',#632,
 .NOT_KNOWN.);
#625=PRODUCT_DEFINITION_FORMATION_WITH_SPECIFIED_SOURCE('','',#633,
 .NOT_KNOWN.);
#626=PRODUCT_RELATED_PRODUCT_CATEGORY('','',(#630));
#627=PRODUCT_RELATED_PRODUCT_CATEGORY('','',(#631));
#628=PRODUCT_RELATED_PRODUCT_CATEGORY('','',(#632));
#629=PRODUCT_RELATED_PRODUCT_CATEGORY('','',(#633));
#630=PRODUCT('NJ2206EA','NJ2206EA','NJ2206EA',(#638));
#631=PRODUCT('NJ2206EA Inner ring','NJ2206EA Inner ring',
'NJ2206EA Inner ring',(#639));
#632=PRODUCT('NJ2206EA Outer ring','NJ2206EA Outer ring',
'NJ2206EA Outer ring',(#640));
#633=PRODUCT('NJ2206EA Roller','NJ2206EA Roller','NJ2206EA Roller',(#641));
#634=PRODUCT_CATEGORY('','');
#635=PRODUCT_CATEGORY('','');
#636=PRODUCT_CATEGORY('','');
#637=PRODUCT_CATEGORY('','');
#638=PRODUCT_CONTEXT('',#643,'mechanical');
#639=PRODUCT_CONTEXT('',#643,'mechanical');
#640=PRODUCT_CONTEXT('',#643,'mechanical');
#641=PRODUCT_CONTEXT('',#643,'mechanical');
#642=APPLICATION_PROTOCOL_DEFINITION('international standard',
'automotive_design',2010,#643);
#643=APPLICATION_CONTEXT(
'core data for automotive mechanical design processes');
ENDSEC;
END-ISO-10303-21;
