ISO-10303-21;
HEADER;
/* Generated by software containing ST-Developer
 * from STEP Tools, Inc. (www.steptools.com) 
 */
/* OPTION: using custom renumber hook */

FILE_DESCRIPTION(
/* description */ ('STEP AP214'),
/* implementation_level */ '2;1');

FILE_NAME(
/* name */ 'NJ2210',
/* time_stamp */ '2024-09-23T09:32:29+02:00',
/* author */ ('License CC BY-ND 4.0'),
/* organization */ ('CADENAS'),
/* preprocessor_version */ 'ST-DEVELOPER v19.3',
/* originating_system */ 'PARTsolutions',
/* authorisation */ '  ');

FILE_SCHEMA (('AUTOMOTIVE_DESIGN {1 0 10303 214 3 1 1}'));
ENDSEC;

DATA;
#10=PROPERTY_DEFINITION_REPRESENTATION(#14,#12);
#11=PROPERTY_DEFINITION_REPRESENTATION(#15,#13);
#12=REPRESENTATION('',(#16),#603);
#13=REPRESENTATION('',(#17),#603);
#14=PROPERTY_DEFINITION('pmi validation property','',#614);
#15=PROPERTY_DEFINITION('pmi validation property','',#614);
#16=VALUE_REPRESENTATION_ITEM('number of annotations',COUNT_MEASURE(0.));
#17=VALUE_REPRESENTATION_ITEM('number of views',COUNT_MEASURE(0.));
#18=CONTEXT_DEPENDENT_SHAPE_REPRESENTATION(#46,#616);
#19=CONTEXT_DEPENDENT_SHAPE_REPRESENTATION(#47,#618);
#20=CONTEXT_DEPENDENT_SHAPE_REPRESENTATION(#48,#620);
#21=CONTEXT_DEPENDENT_SHAPE_REPRESENTATION(#49,#621);
#22=CONTEXT_DEPENDENT_SHAPE_REPRESENTATION(#50,#622);
#23=CONTEXT_DEPENDENT_SHAPE_REPRESENTATION(#51,#623);
#24=CONTEXT_DEPENDENT_SHAPE_REPRESENTATION(#52,#624);
#25=CONTEXT_DEPENDENT_SHAPE_REPRESENTATION(#53,#625);
#26=CONTEXT_DEPENDENT_SHAPE_REPRESENTATION(#54,#626);
#27=CONTEXT_DEPENDENT_SHAPE_REPRESENTATION(#55,#627);
#28=CONTEXT_DEPENDENT_SHAPE_REPRESENTATION(#56,#628);
#29=CONTEXT_DEPENDENT_SHAPE_REPRESENTATION(#57,#629);
#30=CONTEXT_DEPENDENT_SHAPE_REPRESENTATION(#58,#630);
#31=CONTEXT_DEPENDENT_SHAPE_REPRESENTATION(#59,#631);
#32=NEXT_ASSEMBLY_USAGE_OCCURRENCE('NAUO1','NJ2210 Inner ring',
'NJ2210 Inner ring',#632,#633,'');
#33=NEXT_ASSEMBLY_USAGE_OCCURRENCE('NAUO2','NJ2210 Outer ring',
'NJ2210 Outer ring',#632,#634,'');
#34=NEXT_ASSEMBLY_USAGE_OCCURRENCE('NAUO3','NJ2210 Roller',
'NJ2210 Roller',#632,#635,'');
#35=NEXT_ASSEMBLY_USAGE_OCCURRENCE('NAUO4','NJ2210 Roller',
'NJ2210 Roller',#632,#635,'');
#36=NEXT_ASSEMBLY_USAGE_OCCURRENCE('NAUO5','NJ2210 Roller',
'NJ2210 Roller',#632,#635,'');
#37=NEXT_ASSEMBLY_USAGE_OCCURRENCE('NAUO6','NJ2210 Roller',
'NJ2210 Roller',#632,#635,'');
#38=NEXT_ASSEMBLY_USAGE_OCCURRENCE('NAUO7','NJ2210 Roller',
'NJ2210 Roller',#632,#635,'');
#39=NEXT_ASSEMBLY_USAGE_OCCURRENCE('NAUO8','NJ2210 Roller',
'NJ2210 Roller',#632,#635,'');
#40=NEXT_ASSEMBLY_USAGE_OCCURRENCE('NAUO9','NJ2210 Roller',
'NJ2210 Roller',#632,#635,'');
#41=NEXT_ASSEMBLY_USAGE_OCCURRENCE('NAUO10','NJ2210 Roller',
'NJ2210 Roller',#632,#635,'');
#42=NEXT_ASSEMBLY_USAGE_OCCURRENCE('NAUO11','NJ2210 Roller',
'NJ2210 Roller',#632,#635,'');
#43=NEXT_ASSEMBLY_USAGE_OCCURRENCE('NAUO12','NJ2210 Roller',
'NJ2210 Roller',#632,#635,'');
#44=NEXT_ASSEMBLY_USAGE_OCCURRENCE('NAUO13','NJ2210 Roller',
'NJ2210 Roller',#632,#635,'');
#45=NEXT_ASSEMBLY_USAGE_OCCURRENCE('NAUO14','NJ2210 Roller',
'NJ2210 Roller',#632,#635,'');
#46=(
REPRESENTATION_RELATIONSHIP(' ',' ',#346,#345)
REPRESENTATION_RELATIONSHIP_WITH_TRANSFORMATION(#60)
SHAPE_REPRESENTATION_RELATIONSHIP()
);
#47=(
REPRESENTATION_RELATIONSHIP(' ',' ',#347,#345)
REPRESENTATION_RELATIONSHIP_WITH_TRANSFORMATION(#61)
SHAPE_REPRESENTATION_RELATIONSHIP()
);
#48=(
REPRESENTATION_RELATIONSHIP(' ',' ',#348,#345)
REPRESENTATION_RELATIONSHIP_WITH_TRANSFORMATION(#62)
SHAPE_REPRESENTATION_RELATIONSHIP()
);
#49=(
REPRESENTATION_RELATIONSHIP(' ',' ',#348,#345)
REPRESENTATION_RELATIONSHIP_WITH_TRANSFORMATION(#63)
SHAPE_REPRESENTATION_RELATIONSHIP()
);
#50=(
REPRESENTATION_RELATIONSHIP(' ',' ',#348,#345)
REPRESENTATION_RELATIONSHIP_WITH_TRANSFORMATION(#64)
SHAPE_REPRESENTATION_RELATIONSHIP()
);
#51=(
REPRESENTATION_RELATIONSHIP(' ',' ',#348,#345)
REPRESENTATION_RELATIONSHIP_WITH_TRANSFORMATION(#65)
SHAPE_REPRESENTATION_RELATIONSHIP()
);
#52=(
REPRESENTATION_RELATIONSHIP(' ',' ',#348,#345)
REPRESENTATION_RELATIONSHIP_WITH_TRANSFORMATION(#66)
SHAPE_REPRESENTATION_RELATIONSHIP()
);
#53=(
REPRESENTATION_RELATIONSHIP(' ',' ',#348,#345)
REPRESENTATION_RELATIONSHIP_WITH_TRANSFORMATION(#67)
SHAPE_REPRESENTATION_RELATIONSHIP()
);
#54=(
REPRESENTATION_RELATIONSHIP(' ',' ',#348,#345)
REPRESENTATION_RELATIONSHIP_WITH_TRANSFORMATION(#68)
SHAPE_REPRESENTATION_RELATIONSHIP()
);
#55=(
REPRESENTATION_RELATIONSHIP(' ',' ',#348,#345)
REPRESENTATION_RELATIONSHIP_WITH_TRANSFORMATION(#69)
SHAPE_REPRESENTATION_RELATIONSHIP()
);
#56=(
REPRESENTATION_RELATIONSHIP(' ',' ',#348,#345)
REPRESENTATION_RELATIONSHIP_WITH_TRANSFORMATION(#70)
SHAPE_REPRESENTATION_RELATIONSHIP()
);
#57=(
REPRESENTATION_RELATIONSHIP(' ',' ',#348,#345)
REPRESENTATION_RELATIONSHIP_WITH_TRANSFORMATION(#71)
SHAPE_REPRESENTATION_RELATIONSHIP()
);
#58=(
REPRESENTATION_RELATIONSHIP(' ',' ',#348,#345)
REPRESENTATION_RELATIONSHIP_WITH_TRANSFORMATION(#72)
SHAPE_REPRESENTATION_RELATIONSHIP()
);
#59=(
REPRESENTATION_RELATIONSHIP(' ',' ',#348,#345)
REPRESENTATION_RELATIONSHIP_WITH_TRANSFORMATION(#73)
SHAPE_REPRESENTATION_RELATIONSHIP()
);
#60=ITEM_DEFINED_TRANSFORMATION(' ',' ',#349,#368);
#61=ITEM_DEFINED_TRANSFORMATION(' ',' ',#349,#389);
#62=ITEM_DEFINED_TRANSFORMATION(' ',' ',#349,#395);
#63=ITEM_DEFINED_TRANSFORMATION(' ',' ',#349,#396);
#64=ITEM_DEFINED_TRANSFORMATION(' ',' ',#349,#397);
#65=ITEM_DEFINED_TRANSFORMATION(' ',' ',#349,#398);
#66=ITEM_DEFINED_TRANSFORMATION(' ',' ',#349,#399);
#67=ITEM_DEFINED_TRANSFORMATION(' ',' ',#349,#400);
#68=ITEM_DEFINED_TRANSFORMATION(' ',' ',#349,#401);
#69=ITEM_DEFINED_TRANSFORMATION(' ',' ',#349,#402);
#70=ITEM_DEFINED_TRANSFORMATION(' ',' ',#349,#403);
#71=ITEM_DEFINED_TRANSFORMATION(' ',' ',#349,#404);
#72=ITEM_DEFINED_TRANSFORMATION(' ',' ',#349,#405);
#73=ITEM_DEFINED_TRANSFORMATION(' ',' ',#349,#406);
#74=SHAPE_REPRESENTATION_RELATIONSHIP('','',#346,#77);
#75=SHAPE_REPRESENTATION_RELATIONSHIP('','',#347,#78);
#76=SHAPE_REPRESENTATION_RELATIONSHIP('','',#348,#79);
#77=ADVANCED_BREP_SHAPE_REPRESENTATION('',(#338),#604);
#78=ADVANCED_BREP_SHAPE_REPRESENTATION('',(#339),#605);
#79=ADVANCED_BREP_SHAPE_REPRESENTATION('',(#340),#606);
#80=CONICAL_SURFACE('',#361,28.7378,0.240762938545226);
#81=CYLINDRICAL_SURFACE('',#355,25.);
#82=CYLINDRICAL_SURFACE('',#363,30.2);
#83=CYLINDRICAL_SURFACE('',#367,32.3);
#84=CYLINDRICAL_SURFACE('',#374,38.);
#85=CYLINDRICAL_SURFACE('',#378,40.5704);
#86=CYLINDRICAL_SURFACE('',#382,38.);
#87=CYLINDRICAL_SURFACE('',#388,45.);
#88=CYLINDRICAL_SURFACE('',#392,5.18468148);
#89=TOROIDAL_SURFACE('',#353,26.1,1.1);
#90=TOROIDAL_SURFACE('',#357,26.1,1.09999999999999);
#91=TOROIDAL_SURFACE('',#369,43.9,1.09999999999998);
#92=TOROIDAL_SURFACE('',#386,43.9,1.09999999999999);
#93=ORIENTED_EDGE('',*,*,#135,.T.);
#94=ORIENTED_EDGE('',*,*,#136,.F.);
#95=ORIENTED_EDGE('',*,*,#137,.T.);
#96=ORIENTED_EDGE('',*,*,#135,.F.);
#97=ORIENTED_EDGE('',*,*,#138,.T.);
#98=ORIENTED_EDGE('',*,*,#137,.F.);
#99=ORIENTED_EDGE('',*,*,#139,.T.);
#100=ORIENTED_EDGE('',*,*,#138,.F.);
#101=ORIENTED_EDGE('',*,*,#140,.T.);
#102=ORIENTED_EDGE('',*,*,#139,.F.);
#103=ORIENTED_EDGE('',*,*,#141,.T.);
#104=ORIENTED_EDGE('',*,*,#140,.F.);
#105=ORIENTED_EDGE('',*,*,#142,.T.);
#106=ORIENTED_EDGE('',*,*,#141,.F.);
#107=ORIENTED_EDGE('',*,*,#143,.T.);
#108=ORIENTED_EDGE('',*,*,#142,.F.);
#109=ORIENTED_EDGE('',*,*,#136,.T.);
#110=ORIENTED_EDGE('',*,*,#143,.F.);
#111=ORIENTED_EDGE('',*,*,#144,.T.);
#112=ORIENTED_EDGE('',*,*,#145,.F.);
#113=ORIENTED_EDGE('',*,*,#146,.T.);
#114=ORIENTED_EDGE('',*,*,#144,.F.);
#115=ORIENTED_EDGE('',*,*,#147,.T.);
#116=ORIENTED_EDGE('',*,*,#146,.F.);
#117=ORIENTED_EDGE('',*,*,#148,.T.);
#118=ORIENTED_EDGE('',*,*,#147,.F.);
#119=ORIENTED_EDGE('',*,*,#149,.T.);
#120=ORIENTED_EDGE('',*,*,#148,.F.);
#121=ORIENTED_EDGE('',*,*,#150,.T.);
#122=ORIENTED_EDGE('',*,*,#149,.F.);
#123=ORIENTED_EDGE('',*,*,#151,.T.);
#124=ORIENTED_EDGE('',*,*,#150,.F.);
#125=ORIENTED_EDGE('',*,*,#152,.T.);
#126=ORIENTED_EDGE('',*,*,#151,.F.);
#127=ORIENTED_EDGE('',*,*,#153,.T.);
#128=ORIENTED_EDGE('',*,*,#152,.F.);
#129=ORIENTED_EDGE('',*,*,#145,.T.);
#130=ORIENTED_EDGE('',*,*,#153,.F.);
#131=ORIENTED_EDGE('',*,*,#154,.F.);
#132=ORIENTED_EDGE('',*,*,#155,.F.);
#133=ORIENTED_EDGE('',*,*,#154,.T.);
#134=ORIENTED_EDGE('',*,*,#155,.T.);
#135=EDGE_CURVE('',#156,#156,#177,.T.);
#136=EDGE_CURVE('',#157,#157,#178,.T.);
#137=EDGE_CURVE('',#158,#158,#179,.T.);
#138=EDGE_CURVE('',#159,#159,#180,.T.);
#139=EDGE_CURVE('',#160,#160,#181,.T.);
#140=EDGE_CURVE('',#161,#161,#182,.T.);
#141=EDGE_CURVE('',#162,#162,#183,.T.);
#142=EDGE_CURVE('',#163,#163,#184,.T.);
#143=EDGE_CURVE('',#164,#164,#185,.T.);
#144=EDGE_CURVE('',#165,#165,#186,.T.);
#145=EDGE_CURVE('',#166,#166,#187,.T.);
#146=EDGE_CURVE('',#167,#167,#188,.T.);
#147=EDGE_CURVE('',#168,#168,#189,.T.);
#148=EDGE_CURVE('',#169,#169,#190,.T.);
#149=EDGE_CURVE('',#170,#170,#191,.T.);
#150=EDGE_CURVE('',#171,#171,#192,.T.);
#151=EDGE_CURVE('',#172,#172,#193,.T.);
#152=EDGE_CURVE('',#173,#173,#194,.T.);
#153=EDGE_CURVE('',#174,#174,#195,.T.);
#154=EDGE_CURVE('',#175,#175,#196,.T.);
#155=EDGE_CURVE('',#176,#176,#197,.T.);
#156=VERTEX_POINT('',#526);
#157=VERTEX_POINT('',#528);
#158=VERTEX_POINT('',#531);
#159=VERTEX_POINT('',#534);
#160=VERTEX_POINT('',#537);
#161=VERTEX_POINT('',#540);
#162=VERTEX_POINT('',#543);
#163=VERTEX_POINT('',#546);
#164=VERTEX_POINT('',#549);
#165=VERTEX_POINT('',#554);
#166=VERTEX_POINT('',#556);
#167=VERTEX_POINT('',#559);
#168=VERTEX_POINT('',#562);
#169=VERTEX_POINT('',#565);
#170=VERTEX_POINT('',#568);
#171=VERTEX_POINT('',#571);
#172=VERTEX_POINT('',#574);
#173=VERTEX_POINT('',#577);
#174=VERTEX_POINT('',#580);
#175=VERTEX_POINT('',#585);
#176=VERTEX_POINT('',#588);
#177=CIRCLE('',#351,26.1);
#178=CIRCLE('',#352,32.3);
#179=CIRCLE('',#354,25.);
#180=CIRCLE('',#356,25.);
#181=CIRCLE('',#358,26.1);
#182=CIRCLE('',#360,28.7378);
#183=CIRCLE('',#362,30.2);
#184=CIRCLE('',#364,30.2);
#185=CIRCLE('',#366,32.3);
#186=CIRCLE('',#370,43.9);
#187=CIRCLE('',#371,45.);
#188=CIRCLE('',#373,38.);
#189=CIRCLE('',#375,38.);
#190=CIRCLE('',#377,40.5704);
#191=CIRCLE('',#379,40.5704);
#192=CIRCLE('',#381,38.);
#193=CIRCLE('',#383,38.);
#194=CIRCLE('',#385,43.9);
#195=CIRCLE('',#387,45.);
#196=CIRCLE('',#391,5.18468148);
#197=CIRCLE('',#393,5.18468148);
#198=EDGE_LOOP('',(#93));
#199=EDGE_LOOP('',(#94));
#200=EDGE_LOOP('',(#95));
#201=EDGE_LOOP('',(#96));
#202=EDGE_LOOP('',(#97));
#203=EDGE_LOOP('',(#98));
#204=EDGE_LOOP('',(#99));
#205=EDGE_LOOP('',(#100));
#206=EDGE_LOOP('',(#101));
#207=EDGE_LOOP('',(#102));
#208=EDGE_LOOP('',(#103));
#209=EDGE_LOOP('',(#104));
#210=EDGE_LOOP('',(#105));
#211=EDGE_LOOP('',(#106));
#212=EDGE_LOOP('',(#107));
#213=EDGE_LOOP('',(#108));
#214=EDGE_LOOP('',(#109));
#215=EDGE_LOOP('',(#110));
#216=EDGE_LOOP('',(#111));
#217=EDGE_LOOP('',(#112));
#218=EDGE_LOOP('',(#113));
#219=EDGE_LOOP('',(#114));
#220=EDGE_LOOP('',(#115));
#221=EDGE_LOOP('',(#116));
#222=EDGE_LOOP('',(#117));
#223=EDGE_LOOP('',(#118));
#224=EDGE_LOOP('',(#119));
#225=EDGE_LOOP('',(#120));
#226=EDGE_LOOP('',(#121));
#227=EDGE_LOOP('',(#122));
#228=EDGE_LOOP('',(#123));
#229=EDGE_LOOP('',(#124));
#230=EDGE_LOOP('',(#125));
#231=EDGE_LOOP('',(#126));
#232=EDGE_LOOP('',(#127));
#233=EDGE_LOOP('',(#128));
#234=EDGE_LOOP('',(#129));
#235=EDGE_LOOP('',(#130));
#236=EDGE_LOOP('',(#131));
#237=EDGE_LOOP('',(#132));
#238=EDGE_LOOP('',(#133));
#239=EDGE_LOOP('',(#134));
#240=FACE_BOUND('',#198,.T.);
#241=FACE_BOUND('',#199,.T.);
#242=FACE_BOUND('',#200,.T.);
#243=FACE_BOUND('',#201,.T.);
#244=FACE_BOUND('',#202,.T.);
#245=FACE_BOUND('',#203,.T.);
#246=FACE_BOUND('',#204,.T.);
#247=FACE_BOUND('',#205,.T.);
#248=FACE_BOUND('',#206,.T.);
#249=FACE_BOUND('',#207,.T.);
#250=FACE_BOUND('',#208,.T.);
#251=FACE_BOUND('',#209,.T.);
#252=FACE_BOUND('',#210,.T.);
#253=FACE_BOUND('',#211,.T.);
#254=FACE_BOUND('',#212,.T.);
#255=FACE_BOUND('',#213,.T.);
#256=FACE_BOUND('',#214,.T.);
#257=FACE_BOUND('',#215,.T.);
#258=FACE_BOUND('',#216,.T.);
#259=FACE_BOUND('',#217,.T.);
#260=FACE_BOUND('',#218,.T.);
#261=FACE_BOUND('',#219,.T.);
#262=FACE_BOUND('',#220,.T.);
#263=FACE_BOUND('',#221,.T.);
#264=FACE_BOUND('',#222,.T.);
#265=FACE_BOUND('',#223,.T.);
#266=FACE_BOUND('',#224,.T.);
#267=FACE_BOUND('',#225,.T.);
#268=FACE_BOUND('',#226,.T.);
#269=FACE_BOUND('',#227,.T.);
#270=FACE_BOUND('',#228,.T.);
#271=FACE_BOUND('',#229,.T.);
#272=FACE_BOUND('',#230,.T.);
#273=FACE_BOUND('',#231,.T.);
#274=FACE_BOUND('',#232,.T.);
#275=FACE_BOUND('',#233,.T.);
#276=FACE_BOUND('',#234,.T.);
#277=FACE_BOUND('',#235,.T.);
#278=FACE_BOUND('',#236,.T.);
#279=FACE_BOUND('',#237,.T.);
#280=FACE_BOUND('',#238,.T.);
#281=FACE_BOUND('',#239,.T.);
#282=PLANE('',#350);
#283=PLANE('',#359);
#284=PLANE('',#365);
#285=PLANE('',#372);
#286=PLANE('',#376);
#287=PLANE('',#380);
#288=PLANE('',#384);
#289=PLANE('',#390);
#290=PLANE('',#394);
#291=ADVANCED_FACE('',(#240,#241),#282,.T.);
#292=ADVANCED_FACE('',(#242,#243),#89,.T.);
#293=ADVANCED_FACE('',(#244,#245),#81,.F.);
#294=ADVANCED_FACE('',(#246,#247),#90,.T.);
#295=ADVANCED_FACE('',(#248,#249),#283,.T.);
#296=ADVANCED_FACE('',(#250,#251),#80,.T.);
#297=ADVANCED_FACE('',(#252,#253),#82,.T.);
#298=ADVANCED_FACE('',(#254,#255),#284,.T.);
#299=ADVANCED_FACE('',(#256,#257),#83,.T.);
#300=ADVANCED_FACE('',(#258,#259),#91,.T.);
#301=ADVANCED_FACE('',(#260,#261),#285,.T.);
#302=ADVANCED_FACE('',(#262,#263),#84,.F.);
#303=ADVANCED_FACE('',(#264,#265),#286,.T.);
#304=ADVANCED_FACE('',(#266,#267),#85,.F.);
#305=ADVANCED_FACE('',(#268,#269),#287,.T.);
#306=ADVANCED_FACE('',(#270,#271),#86,.F.);
#307=ADVANCED_FACE('',(#272,#273),#288,.T.);
#308=ADVANCED_FACE('',(#274,#275),#92,.T.);
#309=ADVANCED_FACE('',(#276,#277),#87,.T.);
#310=ADVANCED_FACE('',(#278),#289,.F.);
#311=ADVANCED_FACE('',(#279,#280),#88,.T.);
#312=ADVANCED_FACE('',(#281),#290,.F.);
#313=CLOSED_SHELL('',(#291,#292,#293,#294,#295,#296,#297,#298,#299));
#314=CLOSED_SHELL('',(#300,#301,#302,#303,#304,#305,#306,#307,#308,#309));
#315=CLOSED_SHELL('',(#310,#311,#312));
#316=STYLED_ITEM('',(#319),#338);
#317=STYLED_ITEM('',(#320),#339);
#318=STYLED_ITEM('',(#321),#340);
#319=PRESENTATION_STYLE_ASSIGNMENT((#322));
#320=PRESENTATION_STYLE_ASSIGNMENT((#323));
#321=PRESENTATION_STYLE_ASSIGNMENT((#324));
#322=SURFACE_STYLE_USAGE(.BOTH.,#325);
#323=SURFACE_STYLE_USAGE(.BOTH.,#326);
#324=SURFACE_STYLE_USAGE(.BOTH.,#327);
#325=SURFACE_SIDE_STYLE('',(#328));
#326=SURFACE_SIDE_STYLE('',(#329));
#327=SURFACE_SIDE_STYLE('',(#330));
#328=SURFACE_STYLE_FILL_AREA(#331);
#329=SURFACE_STYLE_FILL_AREA(#332);
#330=SURFACE_STYLE_FILL_AREA(#333);
#331=FILL_AREA_STYLE('',(#334));
#332=FILL_AREA_STYLE('',(#335));
#333=FILL_AREA_STYLE('',(#336));
#334=FILL_AREA_STYLE_COLOUR('',#337);
#335=FILL_AREA_STYLE_COLOUR('',#337);
#336=FILL_AREA_STYLE_COLOUR('',#337);
#337=COLOUR_RGB('',0.689999997615814,0.689999997615814,0.689999997615814);
#338=MANIFOLD_SOLID_BREP('NJ2210 Inner ring',#313);
#339=MANIFOLD_SOLID_BREP('NJ2210 Outer ring',#314);
#340=MANIFOLD_SOLID_BREP('NJ2210 Roller',#315);
#341=SHAPE_DEFINITION_REPRESENTATION(#614,#345);
#342=SHAPE_DEFINITION_REPRESENTATION(#615,#346);
#343=SHAPE_DEFINITION_REPRESENTATION(#617,#347);
#344=SHAPE_DEFINITION_REPRESENTATION(#619,#348);
#345=SHAPE_REPRESENTATION('NJ2210',(#349,#368,#389,#395,#396,#397,#398,
#399,#400,#401,#402,#403,#404,#405,#406),#603);
#346=SHAPE_REPRESENTATION('NJ2210 Inner ring',(#349),#604);
#347=SHAPE_REPRESENTATION('NJ2210 Outer ring',(#349),#605);
#348=SHAPE_REPRESENTATION('NJ2210 Roller',(#349),#606);
#349=AXIS2_PLACEMENT_3D('',#523,#407,#408);
#350=AXIS2_PLACEMENT_3D('',#524,#409,#410);
#351=AXIS2_PLACEMENT_3D('',#525,#411,#412);
#352=AXIS2_PLACEMENT_3D('',#527,#413,#414);
#353=AXIS2_PLACEMENT_3D('',#529,#415,#416);
#354=AXIS2_PLACEMENT_3D('',#530,#417,#418);
#355=AXIS2_PLACEMENT_3D('',#532,#419,#420);
#356=AXIS2_PLACEMENT_3D('',#533,#421,#422);
#357=AXIS2_PLACEMENT_3D('',#535,#423,#424);
#358=AXIS2_PLACEMENT_3D('',#536,#425,#426);
#359=AXIS2_PLACEMENT_3D('',#538,#427,#428);
#360=AXIS2_PLACEMENT_3D('',#539,#429,#430);
#361=AXIS2_PLACEMENT_3D('',#541,#431,#432);
#362=AXIS2_PLACEMENT_3D('',#542,#433,#434);
#363=AXIS2_PLACEMENT_3D('',#544,#435,#436);
#364=AXIS2_PLACEMENT_3D('',#545,#437,#438);
#365=AXIS2_PLACEMENT_3D('',#547,#439,#440);
#366=AXIS2_PLACEMENT_3D('',#548,#441,#442);
#367=AXIS2_PLACEMENT_3D('',#550,#443,#444);
#368=AXIS2_PLACEMENT_3D('',#551,#445,#446);
#369=AXIS2_PLACEMENT_3D('',#552,#447,#448);
#370=AXIS2_PLACEMENT_3D('',#553,#449,#450);
#371=AXIS2_PLACEMENT_3D('',#555,#451,#452);
#372=AXIS2_PLACEMENT_3D('',#557,#453,#454);
#373=AXIS2_PLACEMENT_3D('',#558,#455,#456);
#374=AXIS2_PLACEMENT_3D('',#560,#457,#458);
#375=AXIS2_PLACEMENT_3D('',#561,#459,#460);
#376=AXIS2_PLACEMENT_3D('',#563,#461,#462);
#377=AXIS2_PLACEMENT_3D('',#564,#463,#464);
#378=AXIS2_PLACEMENT_3D('',#566,#465,#466);
#379=AXIS2_PLACEMENT_3D('',#567,#467,#468);
#380=AXIS2_PLACEMENT_3D('',#569,#469,#470);
#381=AXIS2_PLACEMENT_3D('',#570,#471,#472);
#382=AXIS2_PLACEMENT_3D('',#572,#473,#474);
#383=AXIS2_PLACEMENT_3D('',#573,#475,#476);
#384=AXIS2_PLACEMENT_3D('',#575,#477,#478);
#385=AXIS2_PLACEMENT_3D('',#576,#479,#480);
#386=AXIS2_PLACEMENT_3D('',#578,#481,#482);
#387=AXIS2_PLACEMENT_3D('',#579,#483,#484);
#388=AXIS2_PLACEMENT_3D('',#581,#485,#486);
#389=AXIS2_PLACEMENT_3D('',#582,#487,#488);
#390=AXIS2_PLACEMENT_3D('',#583,#489,#490);
#391=AXIS2_PLACEMENT_3D('',#584,#491,#492);
#392=AXIS2_PLACEMENT_3D('',#586,#493,#494);
#393=AXIS2_PLACEMENT_3D('',#587,#495,#496);
#394=AXIS2_PLACEMENT_3D('',#589,#497,#498);
#395=AXIS2_PLACEMENT_3D('',#590,#499,#500);
#396=AXIS2_PLACEMENT_3D('',#591,#501,#502);
#397=AXIS2_PLACEMENT_3D('',#592,#503,#504);
#398=AXIS2_PLACEMENT_3D('',#593,#505,#506);
#399=AXIS2_PLACEMENT_3D('',#594,#507,#508);
#400=AXIS2_PLACEMENT_3D('',#595,#509,#510);
#401=AXIS2_PLACEMENT_3D('',#596,#511,#512);
#402=AXIS2_PLACEMENT_3D('',#597,#513,#514);
#403=AXIS2_PLACEMENT_3D('',#598,#515,#516);
#404=AXIS2_PLACEMENT_3D('',#599,#517,#518);
#405=AXIS2_PLACEMENT_3D('',#600,#519,#520);
#406=AXIS2_PLACEMENT_3D('',#601,#521,#522);
#407=DIRECTION('',(0.,0.,1.));
#408=DIRECTION('',(1.,0.,0.));
#409=DIRECTION('',(-1.,0.,0.));
#410=DIRECTION('',(0.,0.,1.));
#411=DIRECTION('',(1.,0.,0.));
#412=DIRECTION('',(0.,0.,-1.));
#413=DIRECTION('',(1.,0.,0.));
#414=DIRECTION('',(0.,0.,-1.));
#415=DIRECTION('',(1.,0.,0.));
#416=DIRECTION('',(0.,0.,-1.));
#417=DIRECTION('',(1.,0.,0.));
#418=DIRECTION('',(0.,0.,-1.));
#419=DIRECTION('',(1.,0.,0.));
#420=DIRECTION('',(0.,0.,-1.));
#421=DIRECTION('',(1.,0.,0.));
#422=DIRECTION('',(0.,0.,-1.));
#423=DIRECTION('',(1.,0.,0.));
#424=DIRECTION('',(0.,0.,-1.));
#425=DIRECTION('',(1.,0.,0.));
#426=DIRECTION('',(0.,0.,-1.));
#427=DIRECTION('',(1.,0.,0.));
#428=DIRECTION('',(0.,0.,-1.));
#429=DIRECTION('',(1.,0.,0.));
#430=DIRECTION('',(0.,0.,-1.));
#431=DIRECTION('',(-1.,0.,0.));
#432=DIRECTION('',(0.,0.,1.));
#433=DIRECTION('',(1.,0.,0.));
#434=DIRECTION('',(0.,0.,-1.));
#435=DIRECTION('',(1.,0.,0.));
#436=DIRECTION('',(0.,0.,-1.));
#437=DIRECTION('',(1.,0.,0.));
#438=DIRECTION('',(0.,0.,-1.));
#439=DIRECTION('',(1.,0.,0.));
#440=DIRECTION('',(0.,0.,-1.));
#441=DIRECTION('',(1.,0.,0.));
#442=DIRECTION('',(0.,0.,-1.));
#443=DIRECTION('',(1.,0.,0.));
#444=DIRECTION('',(0.,0.,-1.));
#445=DIRECTION('',(0.,0.,1.));
#446=DIRECTION('',(1.,0.,0.));
#447=DIRECTION('',(1.,0.,0.));
#448=DIRECTION('',(0.,0.,-1.));
#449=DIRECTION('',(1.,0.,0.));
#450=DIRECTION('',(0.,0.,-1.));
#451=DIRECTION('',(1.,0.,0.));
#452=DIRECTION('',(0.,0.,-1.));
#453=DIRECTION('',(-1.,0.,0.));
#454=DIRECTION('',(0.,0.,1.));
#455=DIRECTION('',(1.,0.,0.));
#456=DIRECTION('',(0.,0.,-1.));
#457=DIRECTION('',(1.,0.,0.));
#458=DIRECTION('',(0.,0.,-1.));
#459=DIRECTION('',(1.,0.,0.));
#460=DIRECTION('',(0.,0.,-1.));
#461=DIRECTION('',(1.,0.,0.));
#462=DIRECTION('',(0.,0.,-1.));
#463=DIRECTION('',(1.,0.,0.));
#464=DIRECTION('',(0.,0.,-1.));
#465=DIRECTION('',(1.,0.,0.));
#466=DIRECTION('',(0.,0.,-1.));
#467=DIRECTION('',(1.,0.,0.));
#468=DIRECTION('',(0.,0.,-1.));
#469=DIRECTION('',(-1.,0.,0.));
#470=DIRECTION('',(0.,0.,1.));
#471=DIRECTION('',(1.,0.,0.));
#472=DIRECTION('',(0.,0.,-1.));
#473=DIRECTION('',(1.,0.,0.));
#474=DIRECTION('',(0.,0.,-1.));
#475=DIRECTION('',(1.,0.,0.));
#476=DIRECTION('',(0.,0.,-1.));
#477=DIRECTION('',(1.,0.,0.));
#478=DIRECTION('',(0.,0.,-1.));
#479=DIRECTION('',(1.,0.,0.));
#480=DIRECTION('',(0.,0.,-1.));
#481=DIRECTION('',(1.,0.,0.));
#482=DIRECTION('',(0.,0.,-1.));
#483=DIRECTION('',(1.,0.,0.));
#484=DIRECTION('',(0.,0.,-1.));
#485=DIRECTION('',(1.,0.,0.));
#486=DIRECTION('',(0.,0.,-1.));
#487=DIRECTION('',(0.,0.,1.));
#488=DIRECTION('',(1.,0.,0.));
#489=DIRECTION('',(1.,0.,0.));
#490=DIRECTION('',(0.,0.,-1.));
#491=DIRECTION('',(1.,0.,0.));
#492=DIRECTION('',(0.,0.,-1.));
#493=DIRECTION('',(1.,0.,0.));
#494=DIRECTION('',(0.,0.,-1.));
#495=DIRECTION('',(1.,0.,0.));
#496=DIRECTION('',(0.,0.,-1.));
#497=DIRECTION('',(-1.,0.,0.));
#498=DIRECTION('',(0.,0.,1.));
#499=DIRECTION('',(0.,0.,1.));
#500=DIRECTION('',(1.,0.,0.));
#501=DIRECTION('',(0.,0.,1.));
#502=DIRECTION('',(1.,0.,0.));
#503=DIRECTION('',(0.,0.,1.));
#504=DIRECTION('',(1.,0.,0.));
#505=DIRECTION('',(0.,0.,1.));
#506=DIRECTION('',(1.,0.,0.));
#507=DIRECTION('',(0.,0.,1.));
#508=DIRECTION('',(1.,0.,0.));
#509=DIRECTION('',(0.,0.,1.));
#510=DIRECTION('',(1.,0.,0.));
#511=DIRECTION('',(0.,0.,1.));
#512=DIRECTION('',(1.,0.,0.));
#513=DIRECTION('',(0.,0.,1.));
#514=DIRECTION('',(1.,0.,0.));
#515=DIRECTION('',(0.,0.,1.));
#516=DIRECTION('',(1.,0.,0.));
#517=DIRECTION('',(0.,0.,1.));
#518=DIRECTION('',(1.,0.,0.));
#519=DIRECTION('',(0.,0.,1.));
#520=DIRECTION('',(1.,0.,0.));
#521=DIRECTION('',(0.,0.,1.));
#522=DIRECTION('',(1.,0.,0.));
#523=CARTESIAN_POINT('',(0.,0.,0.));
#524=CARTESIAN_POINT('',(0.,32.3,0.));
#525=CARTESIAN_POINT('',(0.,0.,0.));
#526=CARTESIAN_POINT('',(0.,0.,-26.1));
#527=CARTESIAN_POINT('',(0.,0.,0.));
#528=CARTESIAN_POINT('',(0.,0.,-32.3));
#529=CARTESIAN_POINT('',(1.1,0.,0.));
#530=CARTESIAN_POINT('',(1.1,0.,0.));
#531=CARTESIAN_POINT('',(1.1,0.,-25.));
#532=CARTESIAN_POINT('',(23.,0.,0.));
#533=CARTESIAN_POINT('',(21.9,0.,0.));
#534=CARTESIAN_POINT('',(21.9,0.,-25.));
#535=CARTESIAN_POINT('',(21.9,0.,0.));
#536=CARTESIAN_POINT('',(23.,0.,0.));
#537=CARTESIAN_POINT('',(23.,0.,-26.1));
#538=CARTESIAN_POINT('',(23.,26.1,0.));
#539=CARTESIAN_POINT('',(23.,0.,0.));
#540=CARTESIAN_POINT('',(23.,0.,-28.7378));
#541=CARTESIAN_POINT('',(23.,0.,0.));
#542=CARTESIAN_POINT('',(17.04461,0.,0.));
#543=CARTESIAN_POINT('',(17.04461,0.,-30.2));
#544=CARTESIAN_POINT('',(23.,0.,0.));
#545=CARTESIAN_POINT('',(5.95539,0.,0.));
#546=CARTESIAN_POINT('',(5.95539,0.,-30.2));
#547=CARTESIAN_POINT('',(5.95539,30.2,0.));
#548=CARTESIAN_POINT('',(5.95539,0.,0.));
#549=CARTESIAN_POINT('',(5.95539,0.,-32.3));
#550=CARTESIAN_POINT('',(23.,0.,0.));
#551=CARTESIAN_POINT('',(0.,0.,0.));
#552=CARTESIAN_POINT('',(1.09999999999998,0.,0.));
#553=CARTESIAN_POINT('',(0.,0.,0.));
#554=CARTESIAN_POINT('',(0.,0.,-43.9));
#555=CARTESIAN_POINT('',(1.1,0.,0.));
#556=CARTESIAN_POINT('',(1.1,0.,-45.));
#557=CARTESIAN_POINT('',(0.,43.9,0.));
#558=CARTESIAN_POINT('',(0.,0.,0.));
#559=CARTESIAN_POINT('',(0.,0.,-38.));
#560=CARTESIAN_POINT('',(23.,0.,0.));
#561=CARTESIAN_POINT('',(5.95539,0.,0.));
#562=CARTESIAN_POINT('',(5.95539,0.,-38.));
#563=CARTESIAN_POINT('',(5.95539,38.,0.));
#564=CARTESIAN_POINT('',(5.95539,0.,0.));
#565=CARTESIAN_POINT('',(5.95539,0.,-40.5704));
#566=CARTESIAN_POINT('',(23.,0.,0.));
#567=CARTESIAN_POINT('',(17.04461,0.,0.));
#568=CARTESIAN_POINT('',(17.04461,0.,-40.5704));
#569=CARTESIAN_POINT('',(17.04461,40.5704,0.));
#570=CARTESIAN_POINT('',(17.04461,0.,0.));
#571=CARTESIAN_POINT('',(17.04461,0.,-38.));
#572=CARTESIAN_POINT('',(23.,0.,0.));
#573=CARTESIAN_POINT('',(23.,0.,0.));
#574=CARTESIAN_POINT('',(23.,0.,-38.));
#575=CARTESIAN_POINT('',(23.,38.,0.));
#576=CARTESIAN_POINT('',(23.,0.,0.));
#577=CARTESIAN_POINT('',(23.,0.,-43.9));
#578=CARTESIAN_POINT('',(21.9,0.,0.));
#579=CARTESIAN_POINT('',(21.9,0.,0.));
#580=CARTESIAN_POINT('',(21.9,0.,-45.));
#581=CARTESIAN_POINT('',(23.,0.,0.));
#582=CARTESIAN_POINT('',(0.,0.,0.));
#583=CARTESIAN_POINT('',(0.1108922,0.,0.));
#584=CARTESIAN_POINT('',(0.110892200000001,0.,0.));
#585=CARTESIAN_POINT('',(0.110892200000001,0.,-5.18468148));
#586=CARTESIAN_POINT('',(10.9783278,0.,0.));
#587=CARTESIAN_POINT('',(10.9783278,0.,0.));
#588=CARTESIAN_POINT('',(10.9783278,0.,-5.18468148));
#589=CARTESIAN_POINT('',(10.9783278,5.18468148,0.));
#590=CARTESIAN_POINT('',(5.95539,35.3852,0.));
#591=CARTESIAN_POINT('',(5.95539,30.6444821179931,17.6926));
#592=CARTESIAN_POINT('',(5.95539,17.6926,30.6444821179931));
#593=CARTESIAN_POINT('',(5.95539,1.06581410364015E-14,35.3852));
#594=CARTESIAN_POINT('',(5.95539,-17.6926,30.6444821179931));
#595=CARTESIAN_POINT('',(5.95539,-30.6444821179931,17.6926));
#596=CARTESIAN_POINT('',(5.95539,-35.3852,1.95399252334028E-14));
#597=CARTESIAN_POINT('',(5.95539,-30.6444821179931,-17.6926));
#598=CARTESIAN_POINT('',(5.95539,-17.6926,-30.6444821179931));
#599=CARTESIAN_POINT('',(5.95539,-2.8421709430404E-14,-35.3852));
#600=CARTESIAN_POINT('',(5.95539,17.6926,-30.6444821179931));
#601=CARTESIAN_POINT('',(5.95539,30.6444821179931,-17.6926));
#602=MECHANICAL_DESIGN_GEOMETRIC_PRESENTATION_REPRESENTATION('',(#316,#317,
#318),#603);
#603=(
GEOMETRIC_REPRESENTATION_CONTEXT(3)
GLOBAL_UNCERTAINTY_ASSIGNED_CONTEXT((#607))
GLOBAL_UNIT_ASSIGNED_CONTEXT((#613,#612,#611))
REPRESENTATION_CONTEXT('NJ2210','TOP_LEVEL_ASSEMBLY_PART')
);
#604=(
GEOMETRIC_REPRESENTATION_CONTEXT(3)
GLOBAL_UNCERTAINTY_ASSIGNED_CONTEXT((#608))
GLOBAL_UNIT_ASSIGNED_CONTEXT((#613,#612,#611))
REPRESENTATION_CONTEXT('NJ2210 Inner ring','COMPONENT_PART')
);
#605=(
GEOMETRIC_REPRESENTATION_CONTEXT(3)
GLOBAL_UNCERTAINTY_ASSIGNED_CONTEXT((#609))
GLOBAL_UNIT_ASSIGNED_CONTEXT((#613,#612,#611))
REPRESENTATION_CONTEXT('NJ2210 Outer ring','COMPONENT_PART')
);
#606=(
GEOMETRIC_REPRESENTATION_CONTEXT(3)
GLOBAL_UNCERTAINTY_ASSIGNED_CONTEXT((#610))
GLOBAL_UNIT_ASSIGNED_CONTEXT((#613,#612,#611))
REPRESENTATION_CONTEXT('NJ2210 Roller','COMPONENT_PART')
);
#607=UNCERTAINTY_MEASURE_WITH_UNIT(LENGTH_MEASURE(0.005),#613,
'DISTANCE_ACCURACY_VALUE','Maximum Tolerance applied to model');
#608=UNCERTAINTY_MEASURE_WITH_UNIT(LENGTH_MEASURE(0.005),#613,
'DISTANCE_ACCURACY_VALUE','Maximum Tolerance applied to model');
#609=UNCERTAINTY_MEASURE_WITH_UNIT(LENGTH_MEASURE(0.005),#613,
'DISTANCE_ACCURACY_VALUE','Maximum Tolerance applied to model');
#610=UNCERTAINTY_MEASURE_WITH_UNIT(LENGTH_MEASURE(0.005),#613,
'DISTANCE_ACCURACY_VALUE','Maximum Tolerance applied to model');
#611=(
NAMED_UNIT(*)
SI_UNIT($,.STERADIAN.)
SOLID_ANGLE_UNIT()
);
#612=(
NAMED_UNIT(*)
PLANE_ANGLE_UNIT()
SI_UNIT($,.RADIAN.)
);
#613=(
LENGTH_UNIT()
NAMED_UNIT(*)
SI_UNIT(.MILLI.,.METRE.)
);
#614=PRODUCT_DEFINITION_SHAPE('','',#632);
#615=PRODUCT_DEFINITION_SHAPE('','',#633);
#616=PRODUCT_DEFINITION_SHAPE(' ','NAUO PRDDFN',#32);
#617=PRODUCT_DEFINITION_SHAPE('','',#634);
#618=PRODUCT_DEFINITION_SHAPE(' ','NAUO PRDDFN',#33);
#619=PRODUCT_DEFINITION_SHAPE('','',#635);
#620=PRODUCT_DEFINITION_SHAPE(' ','NAUO PRDDFN',#34);
#621=PRODUCT_DEFINITION_SHAPE(' ','NAUO PRDDFN',#35);
#622=PRODUCT_DEFINITION_SHAPE(' ','NAUO PRDDFN',#36);
#623=PRODUCT_DEFINITION_SHAPE(' ','NAUO PRDDFN',#37);
#624=PRODUCT_DEFINITION_SHAPE(' ','NAUO PRDDFN',#38);
#625=PRODUCT_DEFINITION_SHAPE(' ','NAUO PRDDFN',#39);
#626=PRODUCT_DEFINITION_SHAPE(' ','NAUO PRDDFN',#40);
#627=PRODUCT_DEFINITION_SHAPE(' ','NAUO PRDDFN',#41);
#628=PRODUCT_DEFINITION_SHAPE(' ','NAUO PRDDFN',#42);
#629=PRODUCT_DEFINITION_SHAPE(' ','NAUO PRDDFN',#43);
#630=PRODUCT_DEFINITION_SHAPE(' ','NAUO PRDDFN',#44);
#631=PRODUCT_DEFINITION_SHAPE(' ','NAUO PRDDFN',#45);
#632=PRODUCT_DEFINITION('','',#640,#636);
#633=PRODUCT_DEFINITION('','',#641,#637);
#634=PRODUCT_DEFINITION('','',#642,#638);
#635=PRODUCT_DEFINITION('','',#643,#639);
#636=PRODUCT_DEFINITION_CONTEXT('',#661,'design');
#637=PRODUCT_DEFINITION_CONTEXT('',#661,'design');
#638=PRODUCT_DEFINITION_CONTEXT('',#661,'design');
#639=PRODUCT_DEFINITION_CONTEXT('',#661,'design');
#640=PRODUCT_DEFINITION_FORMATION_WITH_SPECIFIED_SOURCE('','',#648,
 .NOT_KNOWN.);
#641=PRODUCT_DEFINITION_FORMATION_WITH_SPECIFIED_SOURCE('','',#649,
 .NOT_KNOWN.);
#642=PRODUCT_DEFINITION_FORMATION_WITH_SPECIFIED_SOURCE('','',#650,
 .NOT_KNOWN.);
#643=PRODUCT_DEFINITION_FORMATION_WITH_SPECIFIED_SOURCE('','',#651,
 .NOT_KNOWN.);
#644=PRODUCT_RELATED_PRODUCT_CATEGORY('','',(#648));
#645=PRODUCT_RELATED_PRODUCT_CATEGORY('','',(#649));
#646=PRODUCT_RELATED_PRODUCT_CATEGORY('','',(#650));
#647=PRODUCT_RELATED_PRODUCT_CATEGORY('','',(#651));
#648=PRODUCT('NJ2210','NJ2210','NJ2210',(#656));
#649=PRODUCT('NJ2210 Inner ring','NJ2210 Inner ring',
'NJ2210 Inner ring',(#657));
#650=PRODUCT('NJ2210 Outer ring','NJ2210 Outer ring',
'NJ2210 Outer ring',(#658));
#651=PRODUCT('NJ2210 Roller','NJ2210 Roller','NJ2210 Roller',(#659));
#652=PRODUCT_CATEGORY('','');
#653=PRODUCT_CATEGORY('','');
#654=PRODUCT_CATEGORY('','');
#655=PRODUCT_CATEGORY('','');
#656=PRODUCT_CONTEXT('',#661,'mechanical');
#657=PRODUCT_CONTEXT('',#661,'mechanical');
#658=PRODUCT_CONTEXT('',#661,'mechanical');
#659=PRODUCT_CONTEXT('',#661,'mechanical');
#660=APPLICATION_PROTOCOL_DEFINITION('international standard',
'automotive_design',2010,#661);
#661=APPLICATION_CONTEXT(
'core data for automotive mechanical design processes');
ENDSEC;
END-ISO-10303-21;
