ISO-10303-21;
HEADER;
/* Generated by software containing ST-Developer
 * from STEP Tools, Inc. (www.steptools.com) 
 */
/* OPTION: using custom renumber hook */

FILE_DESCRIPTION(
/* description */ ('STEP AP214'),
/* implementation_level */ '2;1');

FILE_NAME(
/* name */ 'NJ2308',
/* time_stamp */ '2024-09-23T10:52:34+02:00',
/* author */ ('License CC BY-ND 4.0'),
/* organization */ ('CADENAS'),
/* preprocessor_version */ 'ST-DEVELOPER v19.3',
/* originating_system */ 'PARTsolutions',
/* authorisation */ '  ');

FILE_SCHEMA (('AUTOMOTIVE_DESIGN {1 0 10303 214 3 1 1}'));
ENDSEC;

DATA;
#10=PROPERTY_DEFINITION_REPRESENTATION(#14,#12);
#11=PROPERTY_DEFINITION_REPRESENTATION(#15,#13);
#12=REPRESENTATION('',(#16),#571);
#13=REPRESENTATION('',(#17),#571);
#14=PROPERTY_DEFINITION('pmi validation property','',#582);
#15=PROPERTY_DEFINITION('pmi validation property','',#582);
#16=VALUE_REPRESENTATION_ITEM('number of annotations',COUNT_MEASURE(0.));
#17=VALUE_REPRESENTATION_ITEM('number of views',COUNT_MEASURE(0.));
#18=CONTEXT_DEPENDENT_SHAPE_REPRESENTATION(#38,#584);
#19=CONTEXT_DEPENDENT_SHAPE_REPRESENTATION(#39,#586);
#20=CONTEXT_DEPENDENT_SHAPE_REPRESENTATION(#40,#588);
#21=CONTEXT_DEPENDENT_SHAPE_REPRESENTATION(#41,#589);
#22=CONTEXT_DEPENDENT_SHAPE_REPRESENTATION(#42,#590);
#23=CONTEXT_DEPENDENT_SHAPE_REPRESENTATION(#43,#591);
#24=CONTEXT_DEPENDENT_SHAPE_REPRESENTATION(#44,#592);
#25=CONTEXT_DEPENDENT_SHAPE_REPRESENTATION(#45,#593);
#26=CONTEXT_DEPENDENT_SHAPE_REPRESENTATION(#46,#594);
#27=CONTEXT_DEPENDENT_SHAPE_REPRESENTATION(#47,#595);
#28=NEXT_ASSEMBLY_USAGE_OCCURRENCE('NAUO1','NJ2308 Inner ring',
'NJ2308 Inner ring',#596,#597,'');
#29=NEXT_ASSEMBLY_USAGE_OCCURRENCE('NAUO2','NJ2308 Outer ring',
'NJ2308 Outer ring',#596,#598,'');
#30=NEXT_ASSEMBLY_USAGE_OCCURRENCE('NAUO3','NJ2308 Roller',
'NJ2308 Roller',#596,#599,'');
#31=NEXT_ASSEMBLY_USAGE_OCCURRENCE('NAUO4','NJ2308 Roller',
'NJ2308 Roller',#596,#599,'');
#32=NEXT_ASSEMBLY_USAGE_OCCURRENCE('NAUO5','NJ2308 Roller',
'NJ2308 Roller',#596,#599,'');
#33=NEXT_ASSEMBLY_USAGE_OCCURRENCE('NAUO6','NJ2308 Roller',
'NJ2308 Roller',#596,#599,'');
#34=NEXT_ASSEMBLY_USAGE_OCCURRENCE('NAUO7','NJ2308 Roller',
'NJ2308 Roller',#596,#599,'');
#35=NEXT_ASSEMBLY_USAGE_OCCURRENCE('NAUO8','NJ2308 Roller',
'NJ2308 Roller',#596,#599,'');
#36=NEXT_ASSEMBLY_USAGE_OCCURRENCE('NAUO9','NJ2308 Roller',
'NJ2308 Roller',#596,#599,'');
#37=NEXT_ASSEMBLY_USAGE_OCCURRENCE('NAUO10','NJ2308 Roller',
'NJ2308 Roller',#596,#599,'');
#38=(
REPRESENTATION_RELATIONSHIP(' ',' ',#330,#329)
REPRESENTATION_RELATIONSHIP_WITH_TRANSFORMATION(#48)
SHAPE_REPRESENTATION_RELATIONSHIP()
);
#39=(
REPRESENTATION_RELATIONSHIP(' ',' ',#331,#329)
REPRESENTATION_RELATIONSHIP_WITH_TRANSFORMATION(#49)
SHAPE_REPRESENTATION_RELATIONSHIP()
);
#40=(
REPRESENTATION_RELATIONSHIP(' ',' ',#332,#329)
REPRESENTATION_RELATIONSHIP_WITH_TRANSFORMATION(#50)
SHAPE_REPRESENTATION_RELATIONSHIP()
);
#41=(
REPRESENTATION_RELATIONSHIP(' ',' ',#332,#329)
REPRESENTATION_RELATIONSHIP_WITH_TRANSFORMATION(#51)
SHAPE_REPRESENTATION_RELATIONSHIP()
);
#42=(
REPRESENTATION_RELATIONSHIP(' ',' ',#332,#329)
REPRESENTATION_RELATIONSHIP_WITH_TRANSFORMATION(#52)
SHAPE_REPRESENTATION_RELATIONSHIP()
);
#43=(
REPRESENTATION_RELATIONSHIP(' ',' ',#332,#329)
REPRESENTATION_RELATIONSHIP_WITH_TRANSFORMATION(#53)
SHAPE_REPRESENTATION_RELATIONSHIP()
);
#44=(
REPRESENTATION_RELATIONSHIP(' ',' ',#332,#329)
REPRESENTATION_RELATIONSHIP_WITH_TRANSFORMATION(#54)
SHAPE_REPRESENTATION_RELATIONSHIP()
);
#45=(
REPRESENTATION_RELATIONSHIP(' ',' ',#332,#329)
REPRESENTATION_RELATIONSHIP_WITH_TRANSFORMATION(#55)
SHAPE_REPRESENTATION_RELATIONSHIP()
);
#46=(
REPRESENTATION_RELATIONSHIP(' ',' ',#332,#329)
REPRESENTATION_RELATIONSHIP_WITH_TRANSFORMATION(#56)
SHAPE_REPRESENTATION_RELATIONSHIP()
);
#47=(
REPRESENTATION_RELATIONSHIP(' ',' ',#332,#329)
REPRESENTATION_RELATIONSHIP_WITH_TRANSFORMATION(#57)
SHAPE_REPRESENTATION_RELATIONSHIP()
);
#48=ITEM_DEFINED_TRANSFORMATION(' ',' ',#333,#352);
#49=ITEM_DEFINED_TRANSFORMATION(' ',' ',#333,#373);
#50=ITEM_DEFINED_TRANSFORMATION(' ',' ',#333,#379);
#51=ITEM_DEFINED_TRANSFORMATION(' ',' ',#333,#380);
#52=ITEM_DEFINED_TRANSFORMATION(' ',' ',#333,#381);
#53=ITEM_DEFINED_TRANSFORMATION(' ',' ',#333,#382);
#54=ITEM_DEFINED_TRANSFORMATION(' ',' ',#333,#383);
#55=ITEM_DEFINED_TRANSFORMATION(' ',' ',#333,#384);
#56=ITEM_DEFINED_TRANSFORMATION(' ',' ',#333,#385);
#57=ITEM_DEFINED_TRANSFORMATION(' ',' ',#333,#386);
#58=SHAPE_REPRESENTATION_RELATIONSHIP('','',#330,#61);
#59=SHAPE_REPRESENTATION_RELATIONSHIP('','',#331,#62);
#60=SHAPE_REPRESENTATION_RELATIONSHIP('','',#332,#63);
#61=ADVANCED_BREP_SHAPE_REPRESENTATION('',(#322),#572);
#62=ADVANCED_BREP_SHAPE_REPRESENTATION('',(#323),#573);
#63=ADVANCED_BREP_SHAPE_REPRESENTATION('',(#324),#574);
#64=CONICAL_SURFACE('',#345,24.67225,0.238533289208032);
#65=CYLINDRICAL_SURFACE('',#339,20.);
#66=CYLINDRICAL_SURFACE('',#347,26.75);
#67=CYLINDRICAL_SURFACE('',#351,29.2);
#68=CYLINDRICAL_SURFACE('',#358,36.25);
#69=CYLINDRICAL_SURFACE('',#362,39.713);
#70=CYLINDRICAL_SURFACE('',#366,36.25);
#71=CYLINDRICAL_SURFACE('',#372,45.);
#72=CYLINDRICAL_SURFACE('',#376,6.48085185);
#73=TOROIDAL_SURFACE('',#337,21.5,1.5);
#74=TOROIDAL_SURFACE('',#341,21.5,1.49999999999999);
#75=TOROIDAL_SURFACE('',#353,43.5,1.49999999999999);
#76=TOROIDAL_SURFACE('',#370,43.5,1.49999999999999);
#77=ORIENTED_EDGE('',*,*,#119,.T.);
#78=ORIENTED_EDGE('',*,*,#120,.F.);
#79=ORIENTED_EDGE('',*,*,#121,.T.);
#80=ORIENTED_EDGE('',*,*,#119,.F.);
#81=ORIENTED_EDGE('',*,*,#122,.T.);
#82=ORIENTED_EDGE('',*,*,#121,.F.);
#83=ORIENTED_EDGE('',*,*,#123,.T.);
#84=ORIENTED_EDGE('',*,*,#122,.F.);
#85=ORIENTED_EDGE('',*,*,#124,.T.);
#86=ORIENTED_EDGE('',*,*,#123,.F.);
#87=ORIENTED_EDGE('',*,*,#125,.T.);
#88=ORIENTED_EDGE('',*,*,#124,.F.);
#89=ORIENTED_EDGE('',*,*,#126,.T.);
#90=ORIENTED_EDGE('',*,*,#125,.F.);
#91=ORIENTED_EDGE('',*,*,#127,.T.);
#92=ORIENTED_EDGE('',*,*,#126,.F.);
#93=ORIENTED_EDGE('',*,*,#120,.T.);
#94=ORIENTED_EDGE('',*,*,#127,.F.);
#95=ORIENTED_EDGE('',*,*,#128,.T.);
#96=ORIENTED_EDGE('',*,*,#129,.F.);
#97=ORIENTED_EDGE('',*,*,#130,.T.);
#98=ORIENTED_EDGE('',*,*,#128,.F.);
#99=ORIENTED_EDGE('',*,*,#131,.T.);
#100=ORIENTED_EDGE('',*,*,#130,.F.);
#101=ORIENTED_EDGE('',*,*,#132,.T.);
#102=ORIENTED_EDGE('',*,*,#131,.F.);
#103=ORIENTED_EDGE('',*,*,#133,.T.);
#104=ORIENTED_EDGE('',*,*,#132,.F.);
#105=ORIENTED_EDGE('',*,*,#134,.T.);
#106=ORIENTED_EDGE('',*,*,#133,.F.);
#107=ORIENTED_EDGE('',*,*,#135,.T.);
#108=ORIENTED_EDGE('',*,*,#134,.F.);
#109=ORIENTED_EDGE('',*,*,#136,.T.);
#110=ORIENTED_EDGE('',*,*,#135,.F.);
#111=ORIENTED_EDGE('',*,*,#137,.T.);
#112=ORIENTED_EDGE('',*,*,#136,.F.);
#113=ORIENTED_EDGE('',*,*,#129,.T.);
#114=ORIENTED_EDGE('',*,*,#137,.F.);
#115=ORIENTED_EDGE('',*,*,#138,.F.);
#116=ORIENTED_EDGE('',*,*,#139,.F.);
#117=ORIENTED_EDGE('',*,*,#138,.T.);
#118=ORIENTED_EDGE('',*,*,#139,.T.);
#119=EDGE_CURVE('',#140,#140,#161,.T.);
#120=EDGE_CURVE('',#141,#141,#162,.T.);
#121=EDGE_CURVE('',#142,#142,#163,.T.);
#122=EDGE_CURVE('',#143,#143,#164,.T.);
#123=EDGE_CURVE('',#144,#144,#165,.T.);
#124=EDGE_CURVE('',#145,#145,#166,.T.);
#125=EDGE_CURVE('',#146,#146,#167,.T.);
#126=EDGE_CURVE('',#147,#147,#168,.T.);
#127=EDGE_CURVE('',#148,#148,#169,.T.);
#128=EDGE_CURVE('',#149,#149,#170,.T.);
#129=EDGE_CURVE('',#150,#150,#171,.T.);
#130=EDGE_CURVE('',#151,#151,#172,.T.);
#131=EDGE_CURVE('',#152,#152,#173,.T.);
#132=EDGE_CURVE('',#153,#153,#174,.T.);
#133=EDGE_CURVE('',#154,#154,#175,.T.);
#134=EDGE_CURVE('',#155,#155,#176,.T.);
#135=EDGE_CURVE('',#156,#156,#177,.T.);
#136=EDGE_CURVE('',#157,#157,#178,.T.);
#137=EDGE_CURVE('',#158,#158,#179,.T.);
#138=EDGE_CURVE('',#159,#159,#180,.T.);
#139=EDGE_CURVE('',#160,#160,#181,.T.);
#140=VERTEX_POINT('',#498);
#141=VERTEX_POINT('',#500);
#142=VERTEX_POINT('',#503);
#143=VERTEX_POINT('',#506);
#144=VERTEX_POINT('',#509);
#145=VERTEX_POINT('',#512);
#146=VERTEX_POINT('',#515);
#147=VERTEX_POINT('',#518);
#148=VERTEX_POINT('',#521);
#149=VERTEX_POINT('',#526);
#150=VERTEX_POINT('',#528);
#151=VERTEX_POINT('',#531);
#152=VERTEX_POINT('',#534);
#153=VERTEX_POINT('',#537);
#154=VERTEX_POINT('',#540);
#155=VERTEX_POINT('',#543);
#156=VERTEX_POINT('',#546);
#157=VERTEX_POINT('',#549);
#158=VERTEX_POINT('',#552);
#159=VERTEX_POINT('',#557);
#160=VERTEX_POINT('',#560);
#161=CIRCLE('',#335,21.5);
#162=CIRCLE('',#336,29.2);
#163=CIRCLE('',#338,20.);
#164=CIRCLE('',#340,20.);
#165=CIRCLE('',#342,21.5);
#166=CIRCLE('',#344,24.67225);
#167=CIRCLE('',#346,26.75);
#168=CIRCLE('',#348,26.75);
#169=CIRCLE('',#350,29.2);
#170=CIRCLE('',#354,43.5);
#171=CIRCLE('',#355,45.);
#172=CIRCLE('',#357,36.25);
#173=CIRCLE('',#359,36.25);
#174=CIRCLE('',#361,39.713);
#175=CIRCLE('',#363,39.713);
#176=CIRCLE('',#365,36.25);
#177=CIRCLE('',#367,36.25);
#178=CIRCLE('',#369,43.5);
#179=CIRCLE('',#371,45.);
#180=CIRCLE('',#375,6.48085185);
#181=CIRCLE('',#377,6.48085185);
#182=EDGE_LOOP('',(#77));
#183=EDGE_LOOP('',(#78));
#184=EDGE_LOOP('',(#79));
#185=EDGE_LOOP('',(#80));
#186=EDGE_LOOP('',(#81));
#187=EDGE_LOOP('',(#82));
#188=EDGE_LOOP('',(#83));
#189=EDGE_LOOP('',(#84));
#190=EDGE_LOOP('',(#85));
#191=EDGE_LOOP('',(#86));
#192=EDGE_LOOP('',(#87));
#193=EDGE_LOOP('',(#88));
#194=EDGE_LOOP('',(#89));
#195=EDGE_LOOP('',(#90));
#196=EDGE_LOOP('',(#91));
#197=EDGE_LOOP('',(#92));
#198=EDGE_LOOP('',(#93));
#199=EDGE_LOOP('',(#94));
#200=EDGE_LOOP('',(#95));
#201=EDGE_LOOP('',(#96));
#202=EDGE_LOOP('',(#97));
#203=EDGE_LOOP('',(#98));
#204=EDGE_LOOP('',(#99));
#205=EDGE_LOOP('',(#100));
#206=EDGE_LOOP('',(#101));
#207=EDGE_LOOP('',(#102));
#208=EDGE_LOOP('',(#103));
#209=EDGE_LOOP('',(#104));
#210=EDGE_LOOP('',(#105));
#211=EDGE_LOOP('',(#106));
#212=EDGE_LOOP('',(#107));
#213=EDGE_LOOP('',(#108));
#214=EDGE_LOOP('',(#109));
#215=EDGE_LOOP('',(#110));
#216=EDGE_LOOP('',(#111));
#217=EDGE_LOOP('',(#112));
#218=EDGE_LOOP('',(#113));
#219=EDGE_LOOP('',(#114));
#220=EDGE_LOOP('',(#115));
#221=EDGE_LOOP('',(#116));
#222=EDGE_LOOP('',(#117));
#223=EDGE_LOOP('',(#118));
#224=FACE_BOUND('',#182,.T.);
#225=FACE_BOUND('',#183,.T.);
#226=FACE_BOUND('',#184,.T.);
#227=FACE_BOUND('',#185,.T.);
#228=FACE_BOUND('',#186,.T.);
#229=FACE_BOUND('',#187,.T.);
#230=FACE_BOUND('',#188,.T.);
#231=FACE_BOUND('',#189,.T.);
#232=FACE_BOUND('',#190,.T.);
#233=FACE_BOUND('',#191,.T.);
#234=FACE_BOUND('',#192,.T.);
#235=FACE_BOUND('',#193,.T.);
#236=FACE_BOUND('',#194,.T.);
#237=FACE_BOUND('',#195,.T.);
#238=FACE_BOUND('',#196,.T.);
#239=FACE_BOUND('',#197,.T.);
#240=FACE_BOUND('',#198,.T.);
#241=FACE_BOUND('',#199,.T.);
#242=FACE_BOUND('',#200,.T.);
#243=FACE_BOUND('',#201,.T.);
#244=FACE_BOUND('',#202,.T.);
#245=FACE_BOUND('',#203,.T.);
#246=FACE_BOUND('',#204,.T.);
#247=FACE_BOUND('',#205,.T.);
#248=FACE_BOUND('',#206,.T.);
#249=FACE_BOUND('',#207,.T.);
#250=FACE_BOUND('',#208,.T.);
#251=FACE_BOUND('',#209,.T.);
#252=FACE_BOUND('',#210,.T.);
#253=FACE_BOUND('',#211,.T.);
#254=FACE_BOUND('',#212,.T.);
#255=FACE_BOUND('',#213,.T.);
#256=FACE_BOUND('',#214,.T.);
#257=FACE_BOUND('',#215,.T.);
#258=FACE_BOUND('',#216,.T.);
#259=FACE_BOUND('',#217,.T.);
#260=FACE_BOUND('',#218,.T.);
#261=FACE_BOUND('',#219,.T.);
#262=FACE_BOUND('',#220,.T.);
#263=FACE_BOUND('',#221,.T.);
#264=FACE_BOUND('',#222,.T.);
#265=FACE_BOUND('',#223,.T.);
#266=PLANE('',#334);
#267=PLANE('',#343);
#268=PLANE('',#349);
#269=PLANE('',#356);
#270=PLANE('',#360);
#271=PLANE('',#364);
#272=PLANE('',#368);
#273=PLANE('',#374);
#274=PLANE('',#378);
#275=ADVANCED_FACE('',(#224,#225),#266,.T.);
#276=ADVANCED_FACE('',(#226,#227),#73,.T.);
#277=ADVANCED_FACE('',(#228,#229),#65,.F.);
#278=ADVANCED_FACE('',(#230,#231),#74,.T.);
#279=ADVANCED_FACE('',(#232,#233),#267,.T.);
#280=ADVANCED_FACE('',(#234,#235),#64,.T.);
#281=ADVANCED_FACE('',(#236,#237),#66,.T.);
#282=ADVANCED_FACE('',(#238,#239),#268,.T.);
#283=ADVANCED_FACE('',(#240,#241),#67,.T.);
#284=ADVANCED_FACE('',(#242,#243),#75,.T.);
#285=ADVANCED_FACE('',(#244,#245),#269,.T.);
#286=ADVANCED_FACE('',(#246,#247),#68,.F.);
#287=ADVANCED_FACE('',(#248,#249),#270,.T.);
#288=ADVANCED_FACE('',(#250,#251),#69,.F.);
#289=ADVANCED_FACE('',(#252,#253),#271,.T.);
#290=ADVANCED_FACE('',(#254,#255),#70,.F.);
#291=ADVANCED_FACE('',(#256,#257),#272,.T.);
#292=ADVANCED_FACE('',(#258,#259),#76,.T.);
#293=ADVANCED_FACE('',(#260,#261),#71,.T.);
#294=ADVANCED_FACE('',(#262),#273,.F.);
#295=ADVANCED_FACE('',(#263,#264),#72,.T.);
#296=ADVANCED_FACE('',(#265),#274,.F.);
#297=CLOSED_SHELL('',(#275,#276,#277,#278,#279,#280,#281,#282,#283));
#298=CLOSED_SHELL('',(#284,#285,#286,#287,#288,#289,#290,#291,#292,#293));
#299=CLOSED_SHELL('',(#294,#295,#296));
#300=STYLED_ITEM('',(#303),#322);
#301=STYLED_ITEM('',(#304),#323);
#302=STYLED_ITEM('',(#305),#324);
#303=PRESENTATION_STYLE_ASSIGNMENT((#306));
#304=PRESENTATION_STYLE_ASSIGNMENT((#307));
#305=PRESENTATION_STYLE_ASSIGNMENT((#308));
#306=SURFACE_STYLE_USAGE(.BOTH.,#309);
#307=SURFACE_STYLE_USAGE(.BOTH.,#310);
#308=SURFACE_STYLE_USAGE(.BOTH.,#311);
#309=SURFACE_SIDE_STYLE('',(#312));
#310=SURFACE_SIDE_STYLE('',(#313));
#311=SURFACE_SIDE_STYLE('',(#314));
#312=SURFACE_STYLE_FILL_AREA(#315);
#313=SURFACE_STYLE_FILL_AREA(#316);
#314=SURFACE_STYLE_FILL_AREA(#317);
#315=FILL_AREA_STYLE('',(#318));
#316=FILL_AREA_STYLE('',(#319));
#317=FILL_AREA_STYLE('',(#320));
#318=FILL_AREA_STYLE_COLOUR('',#321);
#319=FILL_AREA_STYLE_COLOUR('',#321);
#320=FILL_AREA_STYLE_COLOUR('',#321);
#321=COLOUR_RGB('',0.689999997615814,0.689999997615814,0.689999997615814);
#322=MANIFOLD_SOLID_BREP('NJ2308 Inner ring',#297);
#323=MANIFOLD_SOLID_BREP('NJ2308 Outer ring',#298);
#324=MANIFOLD_SOLID_BREP('NJ2308 Roller',#299);
#325=SHAPE_DEFINITION_REPRESENTATION(#582,#329);
#326=SHAPE_DEFINITION_REPRESENTATION(#583,#330);
#327=SHAPE_DEFINITION_REPRESENTATION(#585,#331);
#328=SHAPE_DEFINITION_REPRESENTATION(#587,#332);
#329=SHAPE_REPRESENTATION('NJ2308',(#333,#352,#373,#379,#380,#381,#382,
#383,#384,#385,#386),#571);
#330=SHAPE_REPRESENTATION('NJ2308 Inner ring',(#333),#572);
#331=SHAPE_REPRESENTATION('NJ2308 Outer ring',(#333),#573);
#332=SHAPE_REPRESENTATION('NJ2308 Roller',(#333),#574);
#333=AXIS2_PLACEMENT_3D('',#495,#387,#388);
#334=AXIS2_PLACEMENT_3D('',#496,#389,#390);
#335=AXIS2_PLACEMENT_3D('',#497,#391,#392);
#336=AXIS2_PLACEMENT_3D('',#499,#393,#394);
#337=AXIS2_PLACEMENT_3D('',#501,#395,#396);
#338=AXIS2_PLACEMENT_3D('',#502,#397,#398);
#339=AXIS2_PLACEMENT_3D('',#504,#399,#400);
#340=AXIS2_PLACEMENT_3D('',#505,#401,#402);
#341=AXIS2_PLACEMENT_3D('',#507,#403,#404);
#342=AXIS2_PLACEMENT_3D('',#508,#405,#406);
#343=AXIS2_PLACEMENT_3D('',#510,#407,#408);
#344=AXIS2_PLACEMENT_3D('',#511,#409,#410);
#345=AXIS2_PLACEMENT_3D('',#513,#411,#412);
#346=AXIS2_PLACEMENT_3D('',#514,#413,#414);
#347=AXIS2_PLACEMENT_3D('',#516,#415,#416);
#348=AXIS2_PLACEMENT_3D('',#517,#417,#418);
#349=AXIS2_PLACEMENT_3D('',#519,#419,#420);
#350=AXIS2_PLACEMENT_3D('',#520,#421,#422);
#351=AXIS2_PLACEMENT_3D('',#522,#423,#424);
#352=AXIS2_PLACEMENT_3D('',#523,#425,#426);
#353=AXIS2_PLACEMENT_3D('',#524,#427,#428);
#354=AXIS2_PLACEMENT_3D('',#525,#429,#430);
#355=AXIS2_PLACEMENT_3D('',#527,#431,#432);
#356=AXIS2_PLACEMENT_3D('',#529,#433,#434);
#357=AXIS2_PLACEMENT_3D('',#530,#435,#436);
#358=AXIS2_PLACEMENT_3D('',#532,#437,#438);
#359=AXIS2_PLACEMENT_3D('',#533,#439,#440);
#360=AXIS2_PLACEMENT_3D('',#535,#441,#442);
#361=AXIS2_PLACEMENT_3D('',#536,#443,#444);
#362=AXIS2_PLACEMENT_3D('',#538,#445,#446);
#363=AXIS2_PLACEMENT_3D('',#539,#447,#448);
#364=AXIS2_PLACEMENT_3D('',#541,#449,#450);
#365=AXIS2_PLACEMENT_3D('',#542,#451,#452);
#366=AXIS2_PLACEMENT_3D('',#544,#453,#454);
#367=AXIS2_PLACEMENT_3D('',#545,#455,#456);
#368=AXIS2_PLACEMENT_3D('',#547,#457,#458);
#369=AXIS2_PLACEMENT_3D('',#548,#459,#460);
#370=AXIS2_PLACEMENT_3D('',#550,#461,#462);
#371=AXIS2_PLACEMENT_3D('',#551,#463,#464);
#372=AXIS2_PLACEMENT_3D('',#553,#465,#466);
#373=AXIS2_PLACEMENT_3D('',#554,#467,#468);
#374=AXIS2_PLACEMENT_3D('',#555,#469,#470);
#375=AXIS2_PLACEMENT_3D('',#556,#471,#472);
#376=AXIS2_PLACEMENT_3D('',#558,#473,#474);
#377=AXIS2_PLACEMENT_3D('',#559,#475,#476);
#378=AXIS2_PLACEMENT_3D('',#561,#477,#478);
#379=AXIS2_PLACEMENT_3D('',#562,#479,#480);
#380=AXIS2_PLACEMENT_3D('',#563,#481,#482);
#381=AXIS2_PLACEMENT_3D('',#564,#483,#484);
#382=AXIS2_PLACEMENT_3D('',#565,#485,#486);
#383=AXIS2_PLACEMENT_3D('',#566,#487,#488);
#384=AXIS2_PLACEMENT_3D('',#567,#489,#490);
#385=AXIS2_PLACEMENT_3D('',#568,#491,#492);
#386=AXIS2_PLACEMENT_3D('',#569,#493,#494);
#387=DIRECTION('',(0.,0.,1.));
#388=DIRECTION('',(1.,0.,0.));
#389=DIRECTION('',(-1.,0.,0.));
#390=DIRECTION('',(0.,0.,1.));
#391=DIRECTION('',(1.,0.,0.));
#392=DIRECTION('',(0.,0.,-1.));
#393=DIRECTION('',(1.,0.,0.));
#394=DIRECTION('',(0.,0.,-1.));
#395=DIRECTION('',(1.,0.,0.));
#396=DIRECTION('',(0.,0.,-1.));
#397=DIRECTION('',(1.,0.,0.));
#398=DIRECTION('',(0.,0.,-1.));
#399=DIRECTION('',(1.,0.,0.));
#400=DIRECTION('',(0.,0.,-1.));
#401=DIRECTION('',(1.,0.,0.));
#402=DIRECTION('',(0.,0.,-1.));
#403=DIRECTION('',(1.,0.,0.));
#404=DIRECTION('',(0.,0.,-1.));
#405=DIRECTION('',(1.,0.,0.));
#406=DIRECTION('',(0.,0.,-1.));
#407=DIRECTION('',(1.,0.,0.));
#408=DIRECTION('',(0.,0.,-1.));
#409=DIRECTION('',(1.,0.,0.));
#410=DIRECTION('',(0.,0.,-1.));
#411=DIRECTION('',(-1.,0.,0.));
#412=DIRECTION('',(0.,0.,1.));
#413=DIRECTION('',(1.,0.,0.));
#414=DIRECTION('',(0.,0.,-1.));
#415=DIRECTION('',(1.,0.,0.));
#416=DIRECTION('',(0.,0.,-1.));
#417=DIRECTION('',(1.,0.,0.));
#418=DIRECTION('',(0.,0.,-1.));
#419=DIRECTION('',(1.,0.,0.));
#420=DIRECTION('',(0.,0.,-1.));
#421=DIRECTION('',(1.,0.,0.));
#422=DIRECTION('',(0.,0.,-1.));
#423=DIRECTION('',(1.,0.,0.));
#424=DIRECTION('',(0.,0.,-1.));
#425=DIRECTION('',(0.,0.,1.));
#426=DIRECTION('',(1.,0.,0.));
#427=DIRECTION('',(1.,0.,0.));
#428=DIRECTION('',(0.,0.,-1.));
#429=DIRECTION('',(1.,0.,0.));
#430=DIRECTION('',(0.,0.,-1.));
#431=DIRECTION('',(1.,0.,0.));
#432=DIRECTION('',(0.,0.,-1.));
#433=DIRECTION('',(-1.,0.,0.));
#434=DIRECTION('',(0.,0.,1.));
#435=DIRECTION('',(1.,0.,0.));
#436=DIRECTION('',(0.,0.,-1.));
#437=DIRECTION('',(1.,0.,0.));
#438=DIRECTION('',(0.,0.,-1.));
#439=DIRECTION('',(1.,0.,0.));
#440=DIRECTION('',(0.,0.,-1.));
#441=DIRECTION('',(1.,0.,0.));
#442=DIRECTION('',(0.,0.,-1.));
#443=DIRECTION('',(1.,0.,0.));
#444=DIRECTION('',(0.,0.,-1.));
#445=DIRECTION('',(1.,0.,0.));
#446=DIRECTION('',(0.,0.,-1.));
#447=DIRECTION('',(1.,0.,0.));
#448=DIRECTION('',(0.,0.,-1.));
#449=DIRECTION('',(-1.,0.,0.));
#450=DIRECTION('',(0.,0.,1.));
#451=DIRECTION('',(1.,0.,0.));
#452=DIRECTION('',(0.,0.,-1.));
#453=DIRECTION('',(1.,0.,0.));
#454=DIRECTION('',(0.,0.,-1.));
#455=DIRECTION('',(1.,0.,0.));
#456=DIRECTION('',(0.,0.,-1.));
#457=DIRECTION('',(1.,0.,0.));
#458=DIRECTION('',(0.,0.,-1.));
#459=DIRECTION('',(1.,0.,0.));
#460=DIRECTION('',(0.,0.,-1.));
#461=DIRECTION('',(1.,0.,0.));
#462=DIRECTION('',(0.,0.,-1.));
#463=DIRECTION('',(1.,0.,0.));
#464=DIRECTION('',(0.,0.,-1.));
#465=DIRECTION('',(1.,0.,0.));
#466=DIRECTION('',(0.,0.,-1.));
#467=DIRECTION('',(0.,0.,1.));
#468=DIRECTION('',(1.,0.,0.));
#469=DIRECTION('',(1.,0.,0.));
#470=DIRECTION('',(0.,0.,-1.));
#471=DIRECTION('',(1.,0.,0.));
#472=DIRECTION('',(0.,0.,-1.));
#473=DIRECTION('',(1.,0.,0.));
#474=DIRECTION('',(0.,0.,-1.));
#475=DIRECTION('',(1.,0.,0.));
#476=DIRECTION('',(0.,0.,-1.));
#477=DIRECTION('',(-1.,0.,0.));
#478=DIRECTION('',(0.,0.,1.));
#479=DIRECTION('',(0.,0.,1.));
#480=DIRECTION('',(1.,0.,0.));
#481=DIRECTION('',(0.,0.,1.));
#482=DIRECTION('',(1.,0.,0.));
#483=DIRECTION('',(0.,0.,1.));
#484=DIRECTION('',(1.,0.,0.));
#485=DIRECTION('',(0.,0.,1.));
#486=DIRECTION('',(1.,0.,0.));
#487=DIRECTION('',(0.,0.,1.));
#488=DIRECTION('',(1.,0.,0.));
#489=DIRECTION('',(0.,0.,1.));
#490=DIRECTION('',(1.,0.,0.));
#491=DIRECTION('',(0.,0.,1.));
#492=DIRECTION('',(1.,0.,0.));
#493=DIRECTION('',(0.,0.,1.));
#494=DIRECTION('',(1.,0.,0.));
#495=CARTESIAN_POINT('',(0.,0.,0.));
#496=CARTESIAN_POINT('',(0.,29.2,0.));
#497=CARTESIAN_POINT('',(0.,0.,0.));
#498=CARTESIAN_POINT('',(0.,0.,-21.5));
#499=CARTESIAN_POINT('',(0.,0.,0.));
#500=CARTESIAN_POINT('',(0.,0.,-29.2));
#501=CARTESIAN_POINT('',(1.5,0.,0.));
#502=CARTESIAN_POINT('',(1.5,0.,0.));
#503=CARTESIAN_POINT('',(1.5,0.,-20.));
#504=CARTESIAN_POINT('',(33.,0.,0.));
#505=CARTESIAN_POINT('',(31.5,0.,0.));
#506=CARTESIAN_POINT('',(31.5,0.,-20.));
#507=CARTESIAN_POINT('',(31.5,0.,0.));
#508=CARTESIAN_POINT('',(33.,0.,0.));
#509=CARTESIAN_POINT('',(33.,0.,-21.5));
#510=CARTESIAN_POINT('',(33.,21.5,0.));
#511=CARTESIAN_POINT('',(33.,0.,0.));
#512=CARTESIAN_POINT('',(33.,0.,-24.67225));
#513=CARTESIAN_POINT('',(33.,0.,0.));
#514=CARTESIAN_POINT('',(24.45531,0.,0.));
#515=CARTESIAN_POINT('',(24.45531,0.,-26.75));
#516=CARTESIAN_POINT('',(33.,0.,0.));
#517=CARTESIAN_POINT('',(8.54469,0.,0.));
#518=CARTESIAN_POINT('',(8.54469,0.,-26.75));
#519=CARTESIAN_POINT('',(8.54469,26.75,0.));
#520=CARTESIAN_POINT('',(8.54469,0.,0.));
#521=CARTESIAN_POINT('',(8.54469,0.,-29.2));
#522=CARTESIAN_POINT('',(33.,0.,0.));
#523=CARTESIAN_POINT('',(0.,0.,0.));
#524=CARTESIAN_POINT('',(1.5,0.,0.));
#525=CARTESIAN_POINT('',(0.,0.,0.));
#526=CARTESIAN_POINT('',(0.,0.,-43.5));
#527=CARTESIAN_POINT('',(1.5,0.,0.));
#528=CARTESIAN_POINT('',(1.5,0.,-45.));
#529=CARTESIAN_POINT('',(0.,43.5,0.));
#530=CARTESIAN_POINT('',(0.,0.,0.));
#531=CARTESIAN_POINT('',(0.,0.,-36.25));
#532=CARTESIAN_POINT('',(33.,0.,0.));
#533=CARTESIAN_POINT('',(8.54469,0.,0.));
#534=CARTESIAN_POINT('',(8.54469,0.,-36.25));
#535=CARTESIAN_POINT('',(8.54469,36.25,0.));
#536=CARTESIAN_POINT('',(8.54469,0.,0.));
#537=CARTESIAN_POINT('',(8.54469,0.,-39.713));
#538=CARTESIAN_POINT('',(33.,0.,0.));
#539=CARTESIAN_POINT('',(24.45531,0.,0.));
#540=CARTESIAN_POINT('',(24.45531,0.,-39.713));
#541=CARTESIAN_POINT('',(24.45531,39.713,0.));
#542=CARTESIAN_POINT('',(24.45531,0.,0.));
#543=CARTESIAN_POINT('',(24.45531,0.,-36.25));
#544=CARTESIAN_POINT('',(33.,0.,0.));
#545=CARTESIAN_POINT('',(33.,0.,0.));
#546=CARTESIAN_POINT('',(33.,0.,-36.25));
#547=CARTESIAN_POINT('',(33.,36.25,0.));
#548=CARTESIAN_POINT('',(33.,0.,0.));
#549=CARTESIAN_POINT('',(33.,0.,-43.5));
#550=CARTESIAN_POINT('',(31.5,0.,0.));
#551=CARTESIAN_POINT('',(31.5,0.,0.));
#552=CARTESIAN_POINT('',(31.5,0.,-45.));
#553=CARTESIAN_POINT('',(33.,0.,0.));
#554=CARTESIAN_POINT('',(0.,0.,0.));
#555=CARTESIAN_POINT('',(0.1591062,0.,0.));
#556=CARTESIAN_POINT('',(0.1591062,0.,0.));
#557=CARTESIAN_POINT('',(0.1591062,0.,-6.48085185));
#558=CARTESIAN_POINT('',(15.7515138,0.,0.));
#559=CARTESIAN_POINT('',(15.7515138,0.,0.));
#560=CARTESIAN_POINT('',(15.7515138,0.,-6.48085185));
#561=CARTESIAN_POINT('',(15.7515138,6.48085185,0.));
#562=CARTESIAN_POINT('',(8.54469,33.2315,0.));
#563=CARTESIAN_POINT('',(8.54469,23.4982189990008,23.4982189990008));
#564=CARTESIAN_POINT('',(8.54469,0.,33.2315));
#565=CARTESIAN_POINT('',(8.54469,-23.4982189990008,23.4982189990008));
#566=CARTESIAN_POINT('',(8.54469,-33.2315,0.));
#567=CARTESIAN_POINT('',(8.54469,-23.4982189990008,-23.4982189990008));
#568=CARTESIAN_POINT('',(8.54469,0.,-33.2315));
#569=CARTESIAN_POINT('',(8.54469,23.4982189990008,-23.4982189990008));
#570=MECHANICAL_DESIGN_GEOMETRIC_PRESENTATION_REPRESENTATION('',(#300,#301,
#302),#571);
#571=(
GEOMETRIC_REPRESENTATION_CONTEXT(3)
GLOBAL_UNCERTAINTY_ASSIGNED_CONTEXT((#575))
GLOBAL_UNIT_ASSIGNED_CONTEXT((#581,#580,#579))
REPRESENTATION_CONTEXT('NJ2308','TOP_LEVEL_ASSEMBLY_PART')
);
#572=(
GEOMETRIC_REPRESENTATION_CONTEXT(3)
GLOBAL_UNCERTAINTY_ASSIGNED_CONTEXT((#576))
GLOBAL_UNIT_ASSIGNED_CONTEXT((#581,#580,#579))
REPRESENTATION_CONTEXT('NJ2308 Inner ring','COMPONENT_PART')
);
#573=(
GEOMETRIC_REPRESENTATION_CONTEXT(3)
GLOBAL_UNCERTAINTY_ASSIGNED_CONTEXT((#577))
GLOBAL_UNIT_ASSIGNED_CONTEXT((#581,#580,#579))
REPRESENTATION_CONTEXT('NJ2308 Outer ring','COMPONENT_PART')
);
#574=(
GEOMETRIC_REPRESENTATION_CONTEXT(3)
GLOBAL_UNCERTAINTY_ASSIGNED_CONTEXT((#578))
GLOBAL_UNIT_ASSIGNED_CONTEXT((#581,#580,#579))
REPRESENTATION_CONTEXT('NJ2308 Roller','COMPONENT_PART')
);
#575=UNCERTAINTY_MEASURE_WITH_UNIT(LENGTH_MEASURE(0.005),#581,
'DISTANCE_ACCURACY_VALUE','Maximum Tolerance applied to model');
#576=UNCERTAINTY_MEASURE_WITH_UNIT(LENGTH_MEASURE(0.005),#581,
'DISTANCE_ACCURACY_VALUE','Maximum Tolerance applied to model');
#577=UNCERTAINTY_MEASURE_WITH_UNIT(LENGTH_MEASURE(0.005),#581,
'DISTANCE_ACCURACY_VALUE','Maximum Tolerance applied to model');
#578=UNCERTAINTY_MEASURE_WITH_UNIT(LENGTH_MEASURE(0.005),#581,
'DISTANCE_ACCURACY_VALUE','Maximum Tolerance applied to model');
#579=(
NAMED_UNIT(*)
SI_UNIT($,.STERADIAN.)
SOLID_ANGLE_UNIT()
);
#580=(
NAMED_UNIT(*)
PLANE_ANGLE_UNIT()
SI_UNIT($,.RADIAN.)
);
#581=(
LENGTH_UNIT()
NAMED_UNIT(*)
SI_UNIT(.MILLI.,.METRE.)
);
#582=PRODUCT_DEFINITION_SHAPE('','',#596);
#583=PRODUCT_DEFINITION_SHAPE('','',#597);
#584=PRODUCT_DEFINITION_SHAPE(' ','NAUO PRDDFN',#28);
#585=PRODUCT_DEFINITION_SHAPE('','',#598);
#586=PRODUCT_DEFINITION_SHAPE(' ','NAUO PRDDFN',#29);
#587=PRODUCT_DEFINITION_SHAPE('','',#599);
#588=PRODUCT_DEFINITION_SHAPE(' ','NAUO PRDDFN',#30);
#589=PRODUCT_DEFINITION_SHAPE(' ','NAUO PRDDFN',#31);
#590=PRODUCT_DEFINITION_SHAPE(' ','NAUO PRDDFN',#32);
#591=PRODUCT_DEFINITION_SHAPE(' ','NAUO PRDDFN',#33);
#592=PRODUCT_DEFINITION_SHAPE(' ','NAUO PRDDFN',#34);
#593=PRODUCT_DEFINITION_SHAPE(' ','NAUO PRDDFN',#35);
#594=PRODUCT_DEFINITION_SHAPE(' ','NAUO PRDDFN',#36);
#595=PRODUCT_DEFINITION_SHAPE(' ','NAUO PRDDFN',#37);
#596=PRODUCT_DEFINITION('','',#604,#600);
#597=PRODUCT_DEFINITION('','',#605,#601);
#598=PRODUCT_DEFINITION('','',#606,#602);
#599=PRODUCT_DEFINITION('','',#607,#603);
#600=PRODUCT_DEFINITION_CONTEXT('',#625,'design');
#601=PRODUCT_DEFINITION_CONTEXT('',#625,'design');
#602=PRODUCT_DEFINITION_CONTEXT('',#625,'design');
#603=PRODUCT_DEFINITION_CONTEXT('',#625,'design');
#604=PRODUCT_DEFINITION_FORMATION_WITH_SPECIFIED_SOURCE('','',#612,
 .NOT_KNOWN.);
#605=PRODUCT_DEFINITION_FORMATION_WITH_SPECIFIED_SOURCE('','',#613,
 .NOT_KNOWN.);
#606=PRODUCT_DEFINITION_FORMATION_WITH_SPECIFIED_SOURCE('','',#614,
 .NOT_KNOWN.);
#607=PRODUCT_DEFINITION_FORMATION_WITH_SPECIFIED_SOURCE('','',#615,
 .NOT_KNOWN.);
#608=PRODUCT_RELATED_PRODUCT_CATEGORY('','',(#612));
#609=PRODUCT_RELATED_PRODUCT_CATEGORY('','',(#613));
#610=PRODUCT_RELATED_PRODUCT_CATEGORY('','',(#614));
#611=PRODUCT_RELATED_PRODUCT_CATEGORY('','',(#615));
#612=PRODUCT('NJ2308','NJ2308','NJ2308',(#620));
#613=PRODUCT('NJ2308 Inner ring','NJ2308 Inner ring',
'NJ2308 Inner ring',(#621));
#614=PRODUCT('NJ2308 Outer ring','NJ2308 Outer ring',
'NJ2308 Outer ring',(#622));
#615=PRODUCT('NJ2308 Roller','NJ2308 Roller','NJ2308 Roller',(#623));
#616=PRODUCT_CATEGORY('','');
#617=PRODUCT_CATEGORY('','');
#618=PRODUCT_CATEGORY('','');
#619=PRODUCT_CATEGORY('','');
#620=PRODUCT_CONTEXT('',#625,'mechanical');
#621=PRODUCT_CONTEXT('',#625,'mechanical');
#622=PRODUCT_CONTEXT('',#625,'mechanical');
#623=PRODUCT_CONTEXT('',#625,'mechanical');
#624=APPLICATION_PROTOCOL_DEFINITION('international standard',
'automotive_design',2010,#625);
#625=APPLICATION_CONTEXT(
'core data for automotive mechanical design processes');
ENDSEC;
END-ISO-10303-21;
