ISO-10303-21;
HEADER;
/* Generated by software containing ST-Developer
 * from STEP Tools, Inc. (www.steptools.com) 
 */
/* OPTION: using custom renumber hook */

FILE_DESCRIPTION(
/* description */ ('STEP AP214'),
/* implementation_level */ '2;1');

FILE_NAME(
/* name */ 'NU213',
/* time_stamp */ '2024-10-29T19:01:35+01:00',
/* author */ ('License CC BY-ND 4.0'),
/* organization */ ('CADENAS'),
/* preprocessor_version */ 'ST-DEVELOPER v19.3',
/* originating_system */ 'PARTsolutions',
/* authorisation */ '  ');

FILE_SCHEMA (('AUTOMOTIVE_DESIGN {1 0 10303 214 3 1 1}'));
ENDSEC;

DATA;
#10=PROPERTY_DEFINITION_REPRESENTATION(#14,#12);
#11=PROPERTY_DEFINITION_REPRESENTATION(#15,#13);
#12=REPRESENTATION('',(#16),#583);
#13=REPRESENTATION('',(#17),#583);
#14=PROPERTY_DEFINITION('pmi validation property','',#594);
#15=PROPERTY_DEFINITION('pmi validation property','',#594);
#16=VALUE_REPRESENTATION_ITEM('number of annotations',COUNT_MEASURE(0.));
#17=VALUE_REPRESENTATION_ITEM('number of views',COUNT_MEASURE(0.));
#18=CONTEXT_DEPENDENT_SHAPE_REPRESENTATION(#46,#596);
#19=CONTEXT_DEPENDENT_SHAPE_REPRESENTATION(#47,#598);
#20=CONTEXT_DEPENDENT_SHAPE_REPRESENTATION(#48,#600);
#21=CONTEXT_DEPENDENT_SHAPE_REPRESENTATION(#49,#601);
#22=CONTEXT_DEPENDENT_SHAPE_REPRESENTATION(#50,#602);
#23=CONTEXT_DEPENDENT_SHAPE_REPRESENTATION(#51,#603);
#24=CONTEXT_DEPENDENT_SHAPE_REPRESENTATION(#52,#604);
#25=CONTEXT_DEPENDENT_SHAPE_REPRESENTATION(#53,#605);
#26=CONTEXT_DEPENDENT_SHAPE_REPRESENTATION(#54,#606);
#27=CONTEXT_DEPENDENT_SHAPE_REPRESENTATION(#55,#607);
#28=CONTEXT_DEPENDENT_SHAPE_REPRESENTATION(#56,#608);
#29=CONTEXT_DEPENDENT_SHAPE_REPRESENTATION(#57,#609);
#30=CONTEXT_DEPENDENT_SHAPE_REPRESENTATION(#58,#610);
#31=CONTEXT_DEPENDENT_SHAPE_REPRESENTATION(#59,#611);
#32=NEXT_ASSEMBLY_USAGE_OCCURRENCE('NAUO1','NU213 Inner ring',
'NU213 Inner ring',#612,#613,'');
#33=NEXT_ASSEMBLY_USAGE_OCCURRENCE('NAUO2','NU213 Outer ring',
'NU213 Outer ring',#612,#614,'');
#34=NEXT_ASSEMBLY_USAGE_OCCURRENCE('NAUO3','NU213 Roller',
'NU213 Roller',#612,#615,'');
#35=NEXT_ASSEMBLY_USAGE_OCCURRENCE('NAUO4','NU213 Roller',
'NU213 Roller',#612,#615,'');
#36=NEXT_ASSEMBLY_USAGE_OCCURRENCE('NAUO5','NU213 Roller',
'NU213 Roller',#612,#615,'');
#37=NEXT_ASSEMBLY_USAGE_OCCURRENCE('NAUO6','NU213 Roller',
'NU213 Roller',#612,#615,'');
#38=NEXT_ASSEMBLY_USAGE_OCCURRENCE('NAUO7','NU213 Roller',
'NU213 Roller',#612,#615,'');
#39=NEXT_ASSEMBLY_USAGE_OCCURRENCE('NAUO8','NU213 Roller',
'NU213 Roller',#612,#615,'');
#40=NEXT_ASSEMBLY_USAGE_OCCURRENCE('NAUO9','NU213 Roller',
'NU213 Roller',#612,#615,'');
#41=NEXT_ASSEMBLY_USAGE_OCCURRENCE('NAUO10','NU213 Roller',
'NU213 Roller',#612,#615,'');
#42=NEXT_ASSEMBLY_USAGE_OCCURRENCE('NAUO11','NU213 Roller',
'NU213 Roller',#612,#615,'');
#43=NEXT_ASSEMBLY_USAGE_OCCURRENCE('NAUO12','NU213 Roller',
'NU213 Roller',#612,#615,'');
#44=NEXT_ASSEMBLY_USAGE_OCCURRENCE('NAUO13','NU213 Roller',
'NU213 Roller',#612,#615,'');
#45=NEXT_ASSEMBLY_USAGE_OCCURRENCE('NAUO14','NU213 Roller',
'NU213 Roller',#612,#615,'');
#46=(
REPRESENTATION_RELATIONSHIP(' ',' ',#335,#334)
REPRESENTATION_RELATIONSHIP_WITH_TRANSFORMATION(#60)
SHAPE_REPRESENTATION_RELATIONSHIP()
);
#47=(
REPRESENTATION_RELATIONSHIP(' ',' ',#336,#334)
REPRESENTATION_RELATIONSHIP_WITH_TRANSFORMATION(#61)
SHAPE_REPRESENTATION_RELATIONSHIP()
);
#48=(
REPRESENTATION_RELATIONSHIP(' ',' ',#337,#334)
REPRESENTATION_RELATIONSHIP_WITH_TRANSFORMATION(#62)
SHAPE_REPRESENTATION_RELATIONSHIP()
);
#49=(
REPRESENTATION_RELATIONSHIP(' ',' ',#337,#334)
REPRESENTATION_RELATIONSHIP_WITH_TRANSFORMATION(#63)
SHAPE_REPRESENTATION_RELATIONSHIP()
);
#50=(
REPRESENTATION_RELATIONSHIP(' ',' ',#337,#334)
REPRESENTATION_RELATIONSHIP_WITH_TRANSFORMATION(#64)
SHAPE_REPRESENTATION_RELATIONSHIP()
);
#51=(
REPRESENTATION_RELATIONSHIP(' ',' ',#337,#334)
REPRESENTATION_RELATIONSHIP_WITH_TRANSFORMATION(#65)
SHAPE_REPRESENTATION_RELATIONSHIP()
);
#52=(
REPRESENTATION_RELATIONSHIP(' ',' ',#337,#334)
REPRESENTATION_RELATIONSHIP_WITH_TRANSFORMATION(#66)
SHAPE_REPRESENTATION_RELATIONSHIP()
);
#53=(
REPRESENTATION_RELATIONSHIP(' ',' ',#337,#334)
REPRESENTATION_RELATIONSHIP_WITH_TRANSFORMATION(#67)
SHAPE_REPRESENTATION_RELATIONSHIP()
);
#54=(
REPRESENTATION_RELATIONSHIP(' ',' ',#337,#334)
REPRESENTATION_RELATIONSHIP_WITH_TRANSFORMATION(#68)
SHAPE_REPRESENTATION_RELATIONSHIP()
);
#55=(
REPRESENTATION_RELATIONSHIP(' ',' ',#337,#334)
REPRESENTATION_RELATIONSHIP_WITH_TRANSFORMATION(#69)
SHAPE_REPRESENTATION_RELATIONSHIP()
);
#56=(
REPRESENTATION_RELATIONSHIP(' ',' ',#337,#334)
REPRESENTATION_RELATIONSHIP_WITH_TRANSFORMATION(#70)
SHAPE_REPRESENTATION_RELATIONSHIP()
);
#57=(
REPRESENTATION_RELATIONSHIP(' ',' ',#337,#334)
REPRESENTATION_RELATIONSHIP_WITH_TRANSFORMATION(#71)
SHAPE_REPRESENTATION_RELATIONSHIP()
);
#58=(
REPRESENTATION_RELATIONSHIP(' ',' ',#337,#334)
REPRESENTATION_RELATIONSHIP_WITH_TRANSFORMATION(#72)
SHAPE_REPRESENTATION_RELATIONSHIP()
);
#59=(
REPRESENTATION_RELATIONSHIP(' ',' ',#337,#334)
REPRESENTATION_RELATIONSHIP_WITH_TRANSFORMATION(#73)
SHAPE_REPRESENTATION_RELATIONSHIP()
);
#60=ITEM_DEFINED_TRANSFORMATION(' ',' ',#338,#355);
#61=ITEM_DEFINED_TRANSFORMATION(' ',' ',#338,#376);
#62=ITEM_DEFINED_TRANSFORMATION(' ',' ',#338,#382);
#63=ITEM_DEFINED_TRANSFORMATION(' ',' ',#338,#383);
#64=ITEM_DEFINED_TRANSFORMATION(' ',' ',#338,#384);
#65=ITEM_DEFINED_TRANSFORMATION(' ',' ',#338,#385);
#66=ITEM_DEFINED_TRANSFORMATION(' ',' ',#338,#386);
#67=ITEM_DEFINED_TRANSFORMATION(' ',' ',#338,#387);
#68=ITEM_DEFINED_TRANSFORMATION(' ',' ',#338,#388);
#69=ITEM_DEFINED_TRANSFORMATION(' ',' ',#338,#389);
#70=ITEM_DEFINED_TRANSFORMATION(' ',' ',#338,#390);
#71=ITEM_DEFINED_TRANSFORMATION(' ',' ',#338,#391);
#72=ITEM_DEFINED_TRANSFORMATION(' ',' ',#338,#392);
#73=ITEM_DEFINED_TRANSFORMATION(' ',' ',#338,#393);
#74=SHAPE_REPRESENTATION_RELATIONSHIP('','',#335,#77);
#75=SHAPE_REPRESENTATION_RELATIONSHIP('','',#336,#78);
#76=SHAPE_REPRESENTATION_RELATIONSHIP('','',#337,#79);
#77=ADVANCED_BREP_SHAPE_REPRESENTATION('',(#327),#584);
#78=ADVANCED_BREP_SHAPE_REPRESENTATION('',(#328),#585);
#79=ADVANCED_BREP_SHAPE_REPRESENTATION('',(#329),#586);
#80=CONICAL_SURFACE('',#350,37.63948,0.348017949534539);
#81=CONICAL_SURFACE('',#354,39.8,0.348017949534539);
#82=CYLINDRICAL_SURFACE('',#344,32.5);
#83=CYLINDRICAL_SURFACE('',#352,39.8);
#84=CYLINDRICAL_SURFACE('',#361,50.375);
#85=CYLINDRICAL_SURFACE('',#365,54.0593);
#86=CYLINDRICAL_SURFACE('',#369,50.375);
#87=CYLINDRICAL_SURFACE('',#375,60.);
#88=CYLINDRICAL_SURFACE('',#379,7.128937035);
#89=TOROIDAL_SURFACE('',#342,34.,1.49999999999999);
#90=TOROIDAL_SURFACE('',#346,34.,1.49999999999999);
#91=TOROIDAL_SURFACE('',#356,58.5,1.49999999999999);
#92=TOROIDAL_SURFACE('',#373,58.5,1.49999999999999);
#93=ORIENTED_EDGE('',*,*,#133,.T.);
#94=ORIENTED_EDGE('',*,*,#134,.F.);
#95=ORIENTED_EDGE('',*,*,#135,.T.);
#96=ORIENTED_EDGE('',*,*,#133,.F.);
#97=ORIENTED_EDGE('',*,*,#136,.T.);
#98=ORIENTED_EDGE('',*,*,#135,.F.);
#99=ORIENTED_EDGE('',*,*,#137,.T.);
#100=ORIENTED_EDGE('',*,*,#136,.F.);
#101=ORIENTED_EDGE('',*,*,#138,.T.);
#102=ORIENTED_EDGE('',*,*,#137,.F.);
#103=ORIENTED_EDGE('',*,*,#139,.T.);
#104=ORIENTED_EDGE('',*,*,#138,.F.);
#105=ORIENTED_EDGE('',*,*,#140,.T.);
#106=ORIENTED_EDGE('',*,*,#139,.F.);
#107=ORIENTED_EDGE('',*,*,#134,.T.);
#108=ORIENTED_EDGE('',*,*,#140,.F.);
#109=ORIENTED_EDGE('',*,*,#141,.T.);
#110=ORIENTED_EDGE('',*,*,#142,.F.);
#111=ORIENTED_EDGE('',*,*,#143,.T.);
#112=ORIENTED_EDGE('',*,*,#141,.F.);
#113=ORIENTED_EDGE('',*,*,#144,.T.);
#114=ORIENTED_EDGE('',*,*,#143,.F.);
#115=ORIENTED_EDGE('',*,*,#145,.T.);
#116=ORIENTED_EDGE('',*,*,#144,.F.);
#117=ORIENTED_EDGE('',*,*,#146,.T.);
#118=ORIENTED_EDGE('',*,*,#145,.F.);
#119=ORIENTED_EDGE('',*,*,#147,.T.);
#120=ORIENTED_EDGE('',*,*,#146,.F.);
#121=ORIENTED_EDGE('',*,*,#148,.T.);
#122=ORIENTED_EDGE('',*,*,#147,.F.);
#123=ORIENTED_EDGE('',*,*,#149,.T.);
#124=ORIENTED_EDGE('',*,*,#148,.F.);
#125=ORIENTED_EDGE('',*,*,#150,.T.);
#126=ORIENTED_EDGE('',*,*,#149,.F.);
#127=ORIENTED_EDGE('',*,*,#142,.T.);
#128=ORIENTED_EDGE('',*,*,#150,.F.);
#129=ORIENTED_EDGE('',*,*,#151,.F.);
#130=ORIENTED_EDGE('',*,*,#152,.F.);
#131=ORIENTED_EDGE('',*,*,#151,.T.);
#132=ORIENTED_EDGE('',*,*,#152,.T.);
#133=EDGE_CURVE('',#153,#153,#173,.T.);
#134=EDGE_CURVE('',#154,#154,#174,.T.);
#135=EDGE_CURVE('',#155,#155,#175,.T.);
#136=EDGE_CURVE('',#156,#156,#176,.T.);
#137=EDGE_CURVE('',#157,#157,#177,.T.);
#138=EDGE_CURVE('',#158,#158,#178,.T.);
#139=EDGE_CURVE('',#159,#159,#179,.T.);
#140=EDGE_CURVE('',#160,#160,#180,.T.);
#141=EDGE_CURVE('',#161,#161,#181,.T.);
#142=EDGE_CURVE('',#162,#162,#182,.T.);
#143=EDGE_CURVE('',#163,#163,#183,.T.);
#144=EDGE_CURVE('',#164,#164,#184,.T.);
#145=EDGE_CURVE('',#165,#165,#185,.T.);
#146=EDGE_CURVE('',#166,#166,#186,.T.);
#147=EDGE_CURVE('',#167,#167,#187,.T.);
#148=EDGE_CURVE('',#168,#168,#188,.T.);
#149=EDGE_CURVE('',#169,#169,#189,.T.);
#150=EDGE_CURVE('',#170,#170,#190,.T.);
#151=EDGE_CURVE('',#171,#171,#191,.T.);
#152=EDGE_CURVE('',#172,#172,#192,.T.);
#153=VERTEX_POINT('',#509);
#154=VERTEX_POINT('',#511);
#155=VERTEX_POINT('',#514);
#156=VERTEX_POINT('',#517);
#157=VERTEX_POINT('',#520);
#158=VERTEX_POINT('',#523);
#159=VERTEX_POINT('',#526);
#160=VERTEX_POINT('',#529);
#161=VERTEX_POINT('',#534);
#162=VERTEX_POINT('',#536);
#163=VERTEX_POINT('',#539);
#164=VERTEX_POINT('',#542);
#165=VERTEX_POINT('',#545);
#166=VERTEX_POINT('',#548);
#167=VERTEX_POINT('',#551);
#168=VERTEX_POINT('',#554);
#169=VERTEX_POINT('',#557);
#170=VERTEX_POINT('',#560);
#171=VERTEX_POINT('',#565);
#172=VERTEX_POINT('',#568);
#173=CIRCLE('',#340,34.);
#174=CIRCLE('',#341,37.63948);
#175=CIRCLE('',#343,32.5);
#176=CIRCLE('',#345,32.5);
#177=CIRCLE('',#347,34.);
#178=CIRCLE('',#349,37.63948);
#179=CIRCLE('',#351,39.8);
#180=CIRCLE('',#353,39.8);
#181=CIRCLE('',#357,58.5);
#182=CIRCLE('',#358,60.);
#183=CIRCLE('',#360,50.375);
#184=CIRCLE('',#362,50.375);
#185=CIRCLE('',#364,54.0593);
#186=CIRCLE('',#366,54.0593);
#187=CIRCLE('',#368,50.375);
#188=CIRCLE('',#370,50.375);
#189=CIRCLE('',#372,58.5);
#190=CIRCLE('',#374,60.);
#191=CIRCLE('',#378,7.128937035);
#192=CIRCLE('',#380,7.128937035);
#193=EDGE_LOOP('',(#93));
#194=EDGE_LOOP('',(#94));
#195=EDGE_LOOP('',(#95));
#196=EDGE_LOOP('',(#96));
#197=EDGE_LOOP('',(#97));
#198=EDGE_LOOP('',(#98));
#199=EDGE_LOOP('',(#99));
#200=EDGE_LOOP('',(#100));
#201=EDGE_LOOP('',(#101));
#202=EDGE_LOOP('',(#102));
#203=EDGE_LOOP('',(#103));
#204=EDGE_LOOP('',(#104));
#205=EDGE_LOOP('',(#105));
#206=EDGE_LOOP('',(#106));
#207=EDGE_LOOP('',(#107));
#208=EDGE_LOOP('',(#108));
#209=EDGE_LOOP('',(#109));
#210=EDGE_LOOP('',(#110));
#211=EDGE_LOOP('',(#111));
#212=EDGE_LOOP('',(#112));
#213=EDGE_LOOP('',(#113));
#214=EDGE_LOOP('',(#114));
#215=EDGE_LOOP('',(#115));
#216=EDGE_LOOP('',(#116));
#217=EDGE_LOOP('',(#117));
#218=EDGE_LOOP('',(#118));
#219=EDGE_LOOP('',(#119));
#220=EDGE_LOOP('',(#120));
#221=EDGE_LOOP('',(#121));
#222=EDGE_LOOP('',(#122));
#223=EDGE_LOOP('',(#123));
#224=EDGE_LOOP('',(#124));
#225=EDGE_LOOP('',(#125));
#226=EDGE_LOOP('',(#126));
#227=EDGE_LOOP('',(#127));
#228=EDGE_LOOP('',(#128));
#229=EDGE_LOOP('',(#129));
#230=EDGE_LOOP('',(#130));
#231=EDGE_LOOP('',(#131));
#232=EDGE_LOOP('',(#132));
#233=FACE_BOUND('',#193,.T.);
#234=FACE_BOUND('',#194,.T.);
#235=FACE_BOUND('',#195,.T.);
#236=FACE_BOUND('',#196,.T.);
#237=FACE_BOUND('',#197,.T.);
#238=FACE_BOUND('',#198,.T.);
#239=FACE_BOUND('',#199,.T.);
#240=FACE_BOUND('',#200,.T.);
#241=FACE_BOUND('',#201,.T.);
#242=FACE_BOUND('',#202,.T.);
#243=FACE_BOUND('',#203,.T.);
#244=FACE_BOUND('',#204,.T.);
#245=FACE_BOUND('',#205,.T.);
#246=FACE_BOUND('',#206,.T.);
#247=FACE_BOUND('',#207,.T.);
#248=FACE_BOUND('',#208,.T.);
#249=FACE_BOUND('',#209,.T.);
#250=FACE_BOUND('',#210,.T.);
#251=FACE_BOUND('',#211,.T.);
#252=FACE_BOUND('',#212,.T.);
#253=FACE_BOUND('',#213,.T.);
#254=FACE_BOUND('',#214,.T.);
#255=FACE_BOUND('',#215,.T.);
#256=FACE_BOUND('',#216,.T.);
#257=FACE_BOUND('',#217,.T.);
#258=FACE_BOUND('',#218,.T.);
#259=FACE_BOUND('',#219,.T.);
#260=FACE_BOUND('',#220,.T.);
#261=FACE_BOUND('',#221,.T.);
#262=FACE_BOUND('',#222,.T.);
#263=FACE_BOUND('',#223,.T.);
#264=FACE_BOUND('',#224,.T.);
#265=FACE_BOUND('',#225,.T.);
#266=FACE_BOUND('',#226,.T.);
#267=FACE_BOUND('',#227,.T.);
#268=FACE_BOUND('',#228,.T.);
#269=FACE_BOUND('',#229,.T.);
#270=FACE_BOUND('',#230,.T.);
#271=FACE_BOUND('',#231,.T.);
#272=FACE_BOUND('',#232,.T.);
#273=PLANE('',#339);
#274=PLANE('',#348);
#275=PLANE('',#359);
#276=PLANE('',#363);
#277=PLANE('',#367);
#278=PLANE('',#371);
#279=PLANE('',#377);
#280=PLANE('',#381);
#281=ADVANCED_FACE('',(#233,#234),#273,.T.);
#282=ADVANCED_FACE('',(#235,#236),#89,.T.);
#283=ADVANCED_FACE('',(#237,#238),#82,.F.);
#284=ADVANCED_FACE('',(#239,#240),#90,.T.);
#285=ADVANCED_FACE('',(#241,#242),#274,.T.);
#286=ADVANCED_FACE('',(#243,#244),#80,.T.);
#287=ADVANCED_FACE('',(#245,#246),#83,.T.);
#288=ADVANCED_FACE('',(#247,#248),#81,.T.);
#289=ADVANCED_FACE('',(#249,#250),#91,.T.);
#290=ADVANCED_FACE('',(#251,#252),#275,.T.);
#291=ADVANCED_FACE('',(#253,#254),#84,.F.);
#292=ADVANCED_FACE('',(#255,#256),#276,.T.);
#293=ADVANCED_FACE('',(#257,#258),#85,.F.);
#294=ADVANCED_FACE('',(#259,#260),#277,.T.);
#295=ADVANCED_FACE('',(#261,#262),#86,.F.);
#296=ADVANCED_FACE('',(#263,#264),#278,.T.);
#297=ADVANCED_FACE('',(#265,#266),#92,.T.);
#298=ADVANCED_FACE('',(#267,#268),#87,.T.);
#299=ADVANCED_FACE('',(#269),#279,.F.);
#300=ADVANCED_FACE('',(#270,#271),#88,.T.);
#301=ADVANCED_FACE('',(#272),#280,.F.);
#302=CLOSED_SHELL('',(#281,#282,#283,#284,#285,#286,#287,#288));
#303=CLOSED_SHELL('',(#289,#290,#291,#292,#293,#294,#295,#296,#297,#298));
#304=CLOSED_SHELL('',(#299,#300,#301));
#305=STYLED_ITEM('',(#308),#327);
#306=STYLED_ITEM('',(#309),#328);
#307=STYLED_ITEM('',(#310),#329);
#308=PRESENTATION_STYLE_ASSIGNMENT((#311));
#309=PRESENTATION_STYLE_ASSIGNMENT((#312));
#310=PRESENTATION_STYLE_ASSIGNMENT((#313));
#311=SURFACE_STYLE_USAGE(.BOTH.,#314);
#312=SURFACE_STYLE_USAGE(.BOTH.,#315);
#313=SURFACE_STYLE_USAGE(.BOTH.,#316);
#314=SURFACE_SIDE_STYLE('',(#317));
#315=SURFACE_SIDE_STYLE('',(#318));
#316=SURFACE_SIDE_STYLE('',(#319));
#317=SURFACE_STYLE_FILL_AREA(#320);
#318=SURFACE_STYLE_FILL_AREA(#321);
#319=SURFACE_STYLE_FILL_AREA(#322);
#320=FILL_AREA_STYLE('',(#323));
#321=FILL_AREA_STYLE('',(#324));
#322=FILL_AREA_STYLE('',(#325));
#323=FILL_AREA_STYLE_COLOUR('',#326);
#324=FILL_AREA_STYLE_COLOUR('',#326);
#325=FILL_AREA_STYLE_COLOUR('',#326);
#326=COLOUR_RGB('',0.689999997615814,0.689999997615814,0.689999997615814);
#327=MANIFOLD_SOLID_BREP('NU213 Inner ring',#302);
#328=MANIFOLD_SOLID_BREP('NU213 Outer ring',#303);
#329=MANIFOLD_SOLID_BREP('NU213 Roller',#304);
#330=SHAPE_DEFINITION_REPRESENTATION(#594,#334);
#331=SHAPE_DEFINITION_REPRESENTATION(#595,#335);
#332=SHAPE_DEFINITION_REPRESENTATION(#597,#336);
#333=SHAPE_DEFINITION_REPRESENTATION(#599,#337);
#334=SHAPE_REPRESENTATION('NU213',(#338,#355,#376,#382,#383,#384,#385,#386,
#387,#388,#389,#390,#391,#392,#393),#583);
#335=SHAPE_REPRESENTATION('NU213 Inner ring',(#338),#584);
#336=SHAPE_REPRESENTATION('NU213 Outer ring',(#338),#585);
#337=SHAPE_REPRESENTATION('NU213 Roller',(#338),#586);
#338=AXIS2_PLACEMENT_3D('',#506,#394,#395);
#339=AXIS2_PLACEMENT_3D('',#507,#396,#397);
#340=AXIS2_PLACEMENT_3D('',#508,#398,#399);
#341=AXIS2_PLACEMENT_3D('',#510,#400,#401);
#342=AXIS2_PLACEMENT_3D('',#512,#402,#403);
#343=AXIS2_PLACEMENT_3D('',#513,#404,#405);
#344=AXIS2_PLACEMENT_3D('',#515,#406,#407);
#345=AXIS2_PLACEMENT_3D('',#516,#408,#409);
#346=AXIS2_PLACEMENT_3D('',#518,#410,#411);
#347=AXIS2_PLACEMENT_3D('',#519,#412,#413);
#348=AXIS2_PLACEMENT_3D('',#521,#414,#415);
#349=AXIS2_PLACEMENT_3D('',#522,#416,#417);
#350=AXIS2_PLACEMENT_3D('',#524,#418,#419);
#351=AXIS2_PLACEMENT_3D('',#525,#420,#421);
#352=AXIS2_PLACEMENT_3D('',#527,#422,#423);
#353=AXIS2_PLACEMENT_3D('',#528,#424,#425);
#354=AXIS2_PLACEMENT_3D('',#530,#426,#427);
#355=AXIS2_PLACEMENT_3D('',#531,#428,#429);
#356=AXIS2_PLACEMENT_3D('',#532,#430,#431);
#357=AXIS2_PLACEMENT_3D('',#533,#432,#433);
#358=AXIS2_PLACEMENT_3D('',#535,#434,#435);
#359=AXIS2_PLACEMENT_3D('',#537,#436,#437);
#360=AXIS2_PLACEMENT_3D('',#538,#438,#439);
#361=AXIS2_PLACEMENT_3D('',#540,#440,#441);
#362=AXIS2_PLACEMENT_3D('',#541,#442,#443);
#363=AXIS2_PLACEMENT_3D('',#543,#444,#445);
#364=AXIS2_PLACEMENT_3D('',#544,#446,#447);
#365=AXIS2_PLACEMENT_3D('',#546,#448,#449);
#366=AXIS2_PLACEMENT_3D('',#547,#450,#451);
#367=AXIS2_PLACEMENT_3D('',#549,#452,#453);
#368=AXIS2_PLACEMENT_3D('',#550,#454,#455);
#369=AXIS2_PLACEMENT_3D('',#552,#456,#457);
#370=AXIS2_PLACEMENT_3D('',#553,#458,#459);
#371=AXIS2_PLACEMENT_3D('',#555,#460,#461);
#372=AXIS2_PLACEMENT_3D('',#556,#462,#463);
#373=AXIS2_PLACEMENT_3D('',#558,#464,#465);
#374=AXIS2_PLACEMENT_3D('',#559,#466,#467);
#375=AXIS2_PLACEMENT_3D('',#561,#468,#469);
#376=AXIS2_PLACEMENT_3D('',#562,#470,#471);
#377=AXIS2_PLACEMENT_3D('',#563,#472,#473);
#378=AXIS2_PLACEMENT_3D('',#564,#474,#475);
#379=AXIS2_PLACEMENT_3D('',#566,#476,#477);
#380=AXIS2_PLACEMENT_3D('',#567,#478,#479);
#381=AXIS2_PLACEMENT_3D('',#569,#480,#481);
#382=AXIS2_PLACEMENT_3D('',#570,#482,#483);
#383=AXIS2_PLACEMENT_3D('',#571,#484,#485);
#384=AXIS2_PLACEMENT_3D('',#572,#486,#487);
#385=AXIS2_PLACEMENT_3D('',#573,#488,#489);
#386=AXIS2_PLACEMENT_3D('',#574,#490,#491);
#387=AXIS2_PLACEMENT_3D('',#575,#492,#493);
#388=AXIS2_PLACEMENT_3D('',#576,#494,#495);
#389=AXIS2_PLACEMENT_3D('',#577,#496,#497);
#390=AXIS2_PLACEMENT_3D('',#578,#498,#499);
#391=AXIS2_PLACEMENT_3D('',#579,#500,#501);
#392=AXIS2_PLACEMENT_3D('',#580,#502,#503);
#393=AXIS2_PLACEMENT_3D('',#581,#504,#505);
#394=DIRECTION('',(0.,0.,1.));
#395=DIRECTION('',(1.,0.,0.));
#396=DIRECTION('',(-1.,0.,0.));
#397=DIRECTION('',(0.,0.,1.));
#398=DIRECTION('',(1.,0.,0.));
#399=DIRECTION('',(0.,0.,-1.));
#400=DIRECTION('',(1.,0.,0.));
#401=DIRECTION('',(0.,0.,-1.));
#402=DIRECTION('',(1.,0.,0.));
#403=DIRECTION('',(0.,0.,-1.));
#404=DIRECTION('',(1.,0.,0.));
#405=DIRECTION('',(0.,0.,-1.));
#406=DIRECTION('',(1.,0.,0.));
#407=DIRECTION('',(0.,0.,-1.));
#408=DIRECTION('',(1.,0.,0.));
#409=DIRECTION('',(0.,0.,-1.));
#410=DIRECTION('',(1.,0.,0.));
#411=DIRECTION('',(0.,0.,-1.));
#412=DIRECTION('',(1.,0.,0.));
#413=DIRECTION('',(0.,0.,-1.));
#414=DIRECTION('',(1.,0.,0.));
#415=DIRECTION('',(0.,0.,-1.));
#416=DIRECTION('',(1.,0.,0.));
#417=DIRECTION('',(0.,0.,-1.));
#418=DIRECTION('',(-1.,0.,0.));
#419=DIRECTION('',(0.,0.,1.));
#420=DIRECTION('',(1.,0.,0.));
#421=DIRECTION('',(0.,0.,-1.));
#422=DIRECTION('',(1.,0.,0.));
#423=DIRECTION('',(0.,0.,-1.));
#424=DIRECTION('',(1.,0.,0.));
#425=DIRECTION('',(0.,0.,-1.));
#426=DIRECTION('',(1.,0.,0.));
#427=DIRECTION('',(0.,0.,-1.));
#428=DIRECTION('',(0.,0.,1.));
#429=DIRECTION('',(1.,0.,0.));
#430=DIRECTION('',(1.,0.,0.));
#431=DIRECTION('',(0.,0.,-1.));
#432=DIRECTION('',(1.,0.,0.));
#433=DIRECTION('',(0.,0.,-1.));
#434=DIRECTION('',(1.,0.,0.));
#435=DIRECTION('',(0.,0.,-1.));
#436=DIRECTION('',(-1.,0.,0.));
#437=DIRECTION('',(0.,0.,1.));
#438=DIRECTION('',(1.,0.,0.));
#439=DIRECTION('',(0.,0.,-1.));
#440=DIRECTION('',(1.,0.,0.));
#441=DIRECTION('',(0.,0.,-1.));
#442=DIRECTION('',(1.,0.,0.));
#443=DIRECTION('',(0.,0.,-1.));
#444=DIRECTION('',(1.,0.,0.));
#445=DIRECTION('',(0.,0.,-1.));
#446=DIRECTION('',(1.,0.,0.));
#447=DIRECTION('',(0.,0.,-1.));
#448=DIRECTION('',(1.,0.,0.));
#449=DIRECTION('',(0.,0.,-1.));
#450=DIRECTION('',(1.,0.,0.));
#451=DIRECTION('',(0.,0.,-1.));
#452=DIRECTION('',(-1.,0.,0.));
#453=DIRECTION('',(0.,0.,1.));
#454=DIRECTION('',(1.,0.,0.));
#455=DIRECTION('',(0.,0.,-1.));
#456=DIRECTION('',(1.,0.,0.));
#457=DIRECTION('',(0.,0.,-1.));
#458=DIRECTION('',(1.,0.,0.));
#459=DIRECTION('',(0.,0.,-1.));
#460=DIRECTION('',(1.,0.,0.));
#461=DIRECTION('',(0.,0.,-1.));
#462=DIRECTION('',(1.,0.,0.));
#463=DIRECTION('',(0.,0.,-1.));
#464=DIRECTION('',(1.,0.,0.));
#465=DIRECTION('',(0.,0.,-1.));
#466=DIRECTION('',(1.,0.,0.));
#467=DIRECTION('',(0.,0.,-1.));
#468=DIRECTION('',(1.,0.,0.));
#469=DIRECTION('',(0.,0.,-1.));
#470=DIRECTION('',(0.,0.,1.));
#471=DIRECTION('',(1.,0.,0.));
#472=DIRECTION('',(1.,0.,0.));
#473=DIRECTION('',(0.,0.,-1.));
#474=DIRECTION('',(1.,0.,0.));
#475=DIRECTION('',(0.,0.,-1.));
#476=DIRECTION('',(1.,0.,0.));
#477=DIRECTION('',(0.,0.,-1.));
#478=DIRECTION('',(1.,0.,0.));
#479=DIRECTION('',(0.,0.,-1.));
#480=DIRECTION('',(-1.,0.,0.));
#481=DIRECTION('',(0.,0.,1.));
#482=DIRECTION('',(0.,0.,1.));
#483=DIRECTION('',(1.,0.,0.));
#484=DIRECTION('',(0.,0.,1.));
#485=DIRECTION('',(1.,0.,0.));
#486=DIRECTION('',(0.,0.,1.));
#487=DIRECTION('',(1.,0.,0.));
#488=DIRECTION('',(0.,0.,1.));
#489=DIRECTION('',(1.,0.,0.));
#490=DIRECTION('',(0.,0.,1.));
#491=DIRECTION('',(1.,0.,0.));
#492=DIRECTION('',(0.,0.,1.));
#493=DIRECTION('',(1.,0.,0.));
#494=DIRECTION('',(0.,0.,1.));
#495=DIRECTION('',(1.,0.,0.));
#496=DIRECTION('',(0.,0.,1.));
#497=DIRECTION('',(1.,0.,0.));
#498=DIRECTION('',(0.,0.,1.));
#499=DIRECTION('',(1.,0.,0.));
#500=DIRECTION('',(0.,0.,1.));
#501=DIRECTION('',(1.,0.,0.));
#502=DIRECTION('',(0.,0.,1.));
#503=DIRECTION('',(1.,0.,0.));
#504=DIRECTION('',(0.,0.,1.));
#505=DIRECTION('',(1.,0.,0.));
#506=CARTESIAN_POINT('',(0.,0.,0.));
#507=CARTESIAN_POINT('',(0.,37.63948,0.));
#508=CARTESIAN_POINT('',(0.,0.,0.));
#509=CARTESIAN_POINT('',(0.,0.,-34.));
#510=CARTESIAN_POINT('',(0.,0.,0.));
#511=CARTESIAN_POINT('',(0.,0.,-37.63948));
#512=CARTESIAN_POINT('',(1.49999999999999,0.,0.));
#513=CARTESIAN_POINT('',(1.5,0.,0.));
#514=CARTESIAN_POINT('',(1.5,0.,-32.5));
#515=CARTESIAN_POINT('',(23.,0.,0.));
#516=CARTESIAN_POINT('',(21.5,0.,0.));
#517=CARTESIAN_POINT('',(21.5,0.,-32.5));
#518=CARTESIAN_POINT('',(21.5,0.,0.));
#519=CARTESIAN_POINT('',(23.,0.,0.));
#520=CARTESIAN_POINT('',(23.,0.,-34.));
#521=CARTESIAN_POINT('',(23.,34.,0.));
#522=CARTESIAN_POINT('',(23.,0.,0.));
#523=CARTESIAN_POINT('',(23.,0.,-37.63948));
#524=CARTESIAN_POINT('',(23.,0.,0.));
#525=CARTESIAN_POINT('',(17.04461,0.,0.));
#526=CARTESIAN_POINT('',(17.04461,0.,-39.8));
#527=CARTESIAN_POINT('',(23.,0.,0.));
#528=CARTESIAN_POINT('',(5.95539,0.,0.));
#529=CARTESIAN_POINT('',(5.95539,0.,-39.8));
#530=CARTESIAN_POINT('',(5.95539,0.,0.));
#531=CARTESIAN_POINT('',(0.,0.,0.));
#532=CARTESIAN_POINT('',(1.5,0.,0.));
#533=CARTESIAN_POINT('',(0.,0.,0.));
#534=CARTESIAN_POINT('',(0.,0.,-58.5));
#535=CARTESIAN_POINT('',(1.5,0.,0.));
#536=CARTESIAN_POINT('',(1.5,0.,-60.));
#537=CARTESIAN_POINT('',(0.,58.5,0.));
#538=CARTESIAN_POINT('',(0.,0.,0.));
#539=CARTESIAN_POINT('',(0.,0.,-50.375));
#540=CARTESIAN_POINT('',(23.,0.,0.));
#541=CARTESIAN_POINT('',(5.95539,0.,0.));
#542=CARTESIAN_POINT('',(5.95539,0.,-50.375));
#543=CARTESIAN_POINT('',(5.95539,50.375,0.));
#544=CARTESIAN_POINT('',(5.95539,0.,0.));
#545=CARTESIAN_POINT('',(5.95539,0.,-54.0593));
#546=CARTESIAN_POINT('',(23.,0.,0.));
#547=CARTESIAN_POINT('',(17.04461,0.,0.));
#548=CARTESIAN_POINT('',(17.04461,0.,-54.0593));
#549=CARTESIAN_POINT('',(17.04461,54.0593,0.));
#550=CARTESIAN_POINT('',(17.04461,0.,0.));
#551=CARTESIAN_POINT('',(17.04461,0.,-50.375));
#552=CARTESIAN_POINT('',(23.,0.,0.));
#553=CARTESIAN_POINT('',(23.,0.,0.));
#554=CARTESIAN_POINT('',(23.,0.,-50.375));
#555=CARTESIAN_POINT('',(23.,50.375,0.));
#556=CARTESIAN_POINT('',(23.,0.,0.));
#557=CARTESIAN_POINT('',(23.,0.,-58.5));
#558=CARTESIAN_POINT('',(21.5,0.,0.));
#559=CARTESIAN_POINT('',(21.5,0.,0.));
#560=CARTESIAN_POINT('',(21.5,0.,-60.));
#561=CARTESIAN_POINT('',(23.,0.,0.));
#562=CARTESIAN_POINT('',(0.,0.,0.));
#563=CARTESIAN_POINT('',(0.1108922,0.,0.));
#564=CARTESIAN_POINT('',(0.110892200000001,0.,0.));
#565=CARTESIAN_POINT('',(0.110892200000001,0.,-7.128937035));
#566=CARTESIAN_POINT('',(10.9783278,0.,0.));
#567=CARTESIAN_POINT('',(10.9783278,0.,0.));
#568=CARTESIAN_POINT('',(10.9783278,0.,-7.128937035));
#569=CARTESIAN_POINT('',(10.9783278,7.128937035,0.));
#570=CARTESIAN_POINT('',(5.95539,46.92965,0.));
#571=CARTESIAN_POINT('',(5.95539,40.6422690907124,23.464825));
#572=CARTESIAN_POINT('',(5.95539,23.464825,40.6422690907124));
#573=CARTESIAN_POINT('',(5.95539,1.06581410364015E-14,46.92965));
#574=CARTESIAN_POINT('',(5.95539,-23.464825,40.6422690907124));
#575=CARTESIAN_POINT('',(5.95539,-40.6422690907124,23.464825));
#576=CARTESIAN_POINT('',(5.95539,-46.92965,2.8421709430404E-14));
#577=CARTESIAN_POINT('',(5.95539,-40.6422690907124,-23.464825));
#578=CARTESIAN_POINT('',(5.95539,-23.464825,-40.6422690907124));
#579=CARTESIAN_POINT('',(5.95539,-3.90798504668055E-14,-46.92965));
#580=CARTESIAN_POINT('',(5.95539,23.464825,-40.6422690907124));
#581=CARTESIAN_POINT('',(5.95539,40.6422690907124,-23.464825));
#582=MECHANICAL_DESIGN_GEOMETRIC_PRESENTATION_REPRESENTATION('',(#305,#306,
#307),#583);
#583=(
GEOMETRIC_REPRESENTATION_CONTEXT(3)
GLOBAL_UNCERTAINTY_ASSIGNED_CONTEXT((#587))
GLOBAL_UNIT_ASSIGNED_CONTEXT((#593,#592,#591))
REPRESENTATION_CONTEXT('NU213','TOP_LEVEL_ASSEMBLY_PART')
);
#584=(
GEOMETRIC_REPRESENTATION_CONTEXT(3)
GLOBAL_UNCERTAINTY_ASSIGNED_CONTEXT((#588))
GLOBAL_UNIT_ASSIGNED_CONTEXT((#593,#592,#591))
REPRESENTATION_CONTEXT('NU213 Inner ring','COMPONENT_PART')
);
#585=(
GEOMETRIC_REPRESENTATION_CONTEXT(3)
GLOBAL_UNCERTAINTY_ASSIGNED_CONTEXT((#589))
GLOBAL_UNIT_ASSIGNED_CONTEXT((#593,#592,#591))
REPRESENTATION_CONTEXT('NU213 Outer ring','COMPONENT_PART')
);
#586=(
GEOMETRIC_REPRESENTATION_CONTEXT(3)
GLOBAL_UNCERTAINTY_ASSIGNED_CONTEXT((#590))
GLOBAL_UNIT_ASSIGNED_CONTEXT((#593,#592,#591))
REPRESENTATION_CONTEXT('NU213 Roller','COMPONENT_PART')
);
#587=UNCERTAINTY_MEASURE_WITH_UNIT(LENGTH_MEASURE(0.005),#593,
'DISTANCE_ACCURACY_VALUE','Maximum Tolerance applied to model');
#588=UNCERTAINTY_MEASURE_WITH_UNIT(LENGTH_MEASURE(0.005),#593,
'DISTANCE_ACCURACY_VALUE','Maximum Tolerance applied to model');
#589=UNCERTAINTY_MEASURE_WITH_UNIT(LENGTH_MEASURE(0.005),#593,
'DISTANCE_ACCURACY_VALUE','Maximum Tolerance applied to model');
#590=UNCERTAINTY_MEASURE_WITH_UNIT(LENGTH_MEASURE(0.005),#593,
'DISTANCE_ACCURACY_VALUE','Maximum Tolerance applied to model');
#591=(
NAMED_UNIT(*)
SI_UNIT($,.STERADIAN.)
SOLID_ANGLE_UNIT()
);
#592=(
NAMED_UNIT(*)
PLANE_ANGLE_UNIT()
SI_UNIT($,.RADIAN.)
);
#593=(
LENGTH_UNIT()
NAMED_UNIT(*)
SI_UNIT(.MILLI.,.METRE.)
);
#594=PRODUCT_DEFINITION_SHAPE('','',#612);
#595=PRODUCT_DEFINITION_SHAPE('','',#613);
#596=PRODUCT_DEFINITION_SHAPE(' ','NAUO PRDDFN',#32);
#597=PRODUCT_DEFINITION_SHAPE('','',#614);
#598=PRODUCT_DEFINITION_SHAPE(' ','NAUO PRDDFN',#33);
#599=PRODUCT_DEFINITION_SHAPE('','',#615);
#600=PRODUCT_DEFINITION_SHAPE(' ','NAUO PRDDFN',#34);
#601=PRODUCT_DEFINITION_SHAPE(' ','NAUO PRDDFN',#35);
#602=PRODUCT_DEFINITION_SHAPE(' ','NAUO PRDDFN',#36);
#603=PRODUCT_DEFINITION_SHAPE(' ','NAUO PRDDFN',#37);
#604=PRODUCT_DEFINITION_SHAPE(' ','NAUO PRDDFN',#38);
#605=PRODUCT_DEFINITION_SHAPE(' ','NAUO PRDDFN',#39);
#606=PRODUCT_DEFINITION_SHAPE(' ','NAUO PRDDFN',#40);
#607=PRODUCT_DEFINITION_SHAPE(' ','NAUO PRDDFN',#41);
#608=PRODUCT_DEFINITION_SHAPE(' ','NAUO PRDDFN',#42);
#609=PRODUCT_DEFINITION_SHAPE(' ','NAUO PRDDFN',#43);
#610=PRODUCT_DEFINITION_SHAPE(' ','NAUO PRDDFN',#44);
#611=PRODUCT_DEFINITION_SHAPE(' ','NAUO PRDDFN',#45);
#612=PRODUCT_DEFINITION('','',#620,#616);
#613=PRODUCT_DEFINITION('','',#621,#617);
#614=PRODUCT_DEFINITION('','',#622,#618);
#615=PRODUCT_DEFINITION('','',#623,#619);
#616=PRODUCT_DEFINITION_CONTEXT('',#641,'design');
#617=PRODUCT_DEFINITION_CONTEXT('',#641,'design');
#618=PRODUCT_DEFINITION_CONTEXT('',#641,'design');
#619=PRODUCT_DEFINITION_CONTEXT('',#641,'design');
#620=PRODUCT_DEFINITION_FORMATION_WITH_SPECIFIED_SOURCE('','',#628,
 .NOT_KNOWN.);
#621=PRODUCT_DEFINITION_FORMATION_WITH_SPECIFIED_SOURCE('','',#629,
 .NOT_KNOWN.);
#622=PRODUCT_DEFINITION_FORMATION_WITH_SPECIFIED_SOURCE('','',#630,
 .NOT_KNOWN.);
#623=PRODUCT_DEFINITION_FORMATION_WITH_SPECIFIED_SOURCE('','',#631,
 .NOT_KNOWN.);
#624=PRODUCT_RELATED_PRODUCT_CATEGORY('','',(#628));
#625=PRODUCT_RELATED_PRODUCT_CATEGORY('','',(#629));
#626=PRODUCT_RELATED_PRODUCT_CATEGORY('','',(#630));
#627=PRODUCT_RELATED_PRODUCT_CATEGORY('','',(#631));
#628=PRODUCT('NU213','NU213','NU213',(#636));
#629=PRODUCT('NU213 Inner ring','NU213 Inner ring','NU213 Inner ring',(#637));
#630=PRODUCT('NU213 Outer ring','NU213 Outer ring','NU213 Outer ring',(#638));
#631=PRODUCT('NU213 Roller','NU213 Roller','NU213 Roller',(#639));
#632=PRODUCT_CATEGORY('','');
#633=PRODUCT_CATEGORY('','');
#634=PRODUCT_CATEGORY('','');
#635=PRODUCT_CATEGORY('','');
#636=PRODUCT_CONTEXT('',#641,'mechanical');
#637=PRODUCT_CONTEXT('',#641,'mechanical');
#638=PRODUCT_CONTEXT('',#641,'mechanical');
#639=PRODUCT_CONTEXT('',#641,'mechanical');
#640=APPLICATION_PROTOCOL_DEFINITION('international standard',
'automotive_design',2010,#641);
#641=APPLICATION_CONTEXT(
'core data for automotive mechanical design processes');
ENDSEC;
END-ISO-10303-21;
