ISO-10303-21;
HEADER;
/* Generated by software containing ST-Developer
 * from STEP Tools, Inc. (www.steptools.com) 
 */
/* OPTION: using custom renumber hook */

FILE_DESCRIPTION(
/* description */ ('STEP AP214'),
/* implementation_level */ '2;1');

FILE_NAME(
/* name */ '7310B',
/* time_stamp */ '2024-07-30T15:49:13+02:00',
/* author */ ('License CC BY-ND 4.0'),
/* organization */ ('CADENAS'),
/* preprocessor_version */ 'ST-DEVELOPER v19.3',
/* originating_system */ 'PARTsolutions',
/* authorisation */ '  ');

FILE_SCHEMA (('AUTOMOTIVE_DESIGN {1 0 10303 214 3 1 1}'));
ENDSEC;

DATA;
#10=PROPERTY_DEFINITION_REPRESENTATION(#14,#12);
#11=PROPERTY_DEFINITION_REPRESENTATION(#15,#13);
#12=REPRESENTATION('',(#16),#475);
#13=REPRESENTATION('',(#17),#475);
#14=PROPERTY_DEFINITION('pmi validation property','',#486);
#15=PROPERTY_DEFINITION('pmi validation property','',#486);
#16=VALUE_REPRESENTATION_ITEM('number of annotations',COUNT_MEASURE(0.));
#17=VALUE_REPRESENTATION_ITEM('number of views',COUNT_MEASURE(0.));
#18=VERTEX_LOOP('',#142);
#19=SPHERICAL_SURFACE('',#316,8.865);
#20=CONICAL_SURFACE('',#308,48.68125,0.135997010736347);
#21=CONTEXT_DEPENDENT_SHAPE_REPRESENTATION(#41,#488);
#22=CONTEXT_DEPENDENT_SHAPE_REPRESENTATION(#42,#490);
#23=CONTEXT_DEPENDENT_SHAPE_REPRESENTATION(#43,#492);
#24=CONTEXT_DEPENDENT_SHAPE_REPRESENTATION(#44,#493);
#25=CONTEXT_DEPENDENT_SHAPE_REPRESENTATION(#45,#494);
#26=CONTEXT_DEPENDENT_SHAPE_REPRESENTATION(#46,#495);
#27=CONTEXT_DEPENDENT_SHAPE_REPRESENTATION(#47,#496);
#28=CONTEXT_DEPENDENT_SHAPE_REPRESENTATION(#48,#497);
#29=CONTEXT_DEPENDENT_SHAPE_REPRESENTATION(#49,#498);
#30=CONTEXT_DEPENDENT_SHAPE_REPRESENTATION(#50,#499);
#31=NEXT_ASSEMBLY_USAGE_OCCURRENCE('NAUO1','7310B0 Inner ring',
'7310B0 Inner ring',#500,#501,'');
#32=NEXT_ASSEMBLY_USAGE_OCCURRENCE('NAUO2','7310B0 Outer ring',
'7310B0 Outer ring',#500,#502,'');
#33=NEXT_ASSEMBLY_USAGE_OCCURRENCE('NAUO3','7310B0 Ball','7310B0 Ball',
#500,#503,'');
#34=NEXT_ASSEMBLY_USAGE_OCCURRENCE('NAUO4','7310B0 Ball','7310B0 Ball',
#500,#503,'');
#35=NEXT_ASSEMBLY_USAGE_OCCURRENCE('NAUO5','7310B0 Ball','7310B0 Ball',
#500,#503,'');
#36=NEXT_ASSEMBLY_USAGE_OCCURRENCE('NAUO6','7310B0 Ball','7310B0 Ball',
#500,#503,'');
#37=NEXT_ASSEMBLY_USAGE_OCCURRENCE('NAUO7','7310B0 Ball','7310B0 Ball',
#500,#503,'');
#38=NEXT_ASSEMBLY_USAGE_OCCURRENCE('NAUO8','7310B0 Ball','7310B0 Ball',
#500,#503,'');
#39=NEXT_ASSEMBLY_USAGE_OCCURRENCE('NAUO9','7310B0 Ball','7310B0 Ball',
#500,#503,'');
#40=NEXT_ASSEMBLY_USAGE_OCCURRENCE('NAUO10','7310B0 Ball','7310B0 Ball',
#500,#503,'');
#41=(
REPRESENTATION_RELATIONSHIP(' ',' ',#278,#277)
REPRESENTATION_RELATIONSHIP_WITH_TRANSFORMATION(#51)
SHAPE_REPRESENTATION_RELATIONSHIP()
);
#42=(
REPRESENTATION_RELATIONSHIP(' ',' ',#279,#277)
REPRESENTATION_RELATIONSHIP_WITH_TRANSFORMATION(#52)
SHAPE_REPRESENTATION_RELATIONSHIP()
);
#43=(
REPRESENTATION_RELATIONSHIP(' ',' ',#280,#277)
REPRESENTATION_RELATIONSHIP_WITH_TRANSFORMATION(#53)
SHAPE_REPRESENTATION_RELATIONSHIP()
);
#44=(
REPRESENTATION_RELATIONSHIP(' ',' ',#280,#277)
REPRESENTATION_RELATIONSHIP_WITH_TRANSFORMATION(#54)
SHAPE_REPRESENTATION_RELATIONSHIP()
);
#45=(
REPRESENTATION_RELATIONSHIP(' ',' ',#280,#277)
REPRESENTATION_RELATIONSHIP_WITH_TRANSFORMATION(#55)
SHAPE_REPRESENTATION_RELATIONSHIP()
);
#46=(
REPRESENTATION_RELATIONSHIP(' ',' ',#280,#277)
REPRESENTATION_RELATIONSHIP_WITH_TRANSFORMATION(#56)
SHAPE_REPRESENTATION_RELATIONSHIP()
);
#47=(
REPRESENTATION_RELATIONSHIP(' ',' ',#280,#277)
REPRESENTATION_RELATIONSHIP_WITH_TRANSFORMATION(#57)
SHAPE_REPRESENTATION_RELATIONSHIP()
);
#48=(
REPRESENTATION_RELATIONSHIP(' ',' ',#280,#277)
REPRESENTATION_RELATIONSHIP_WITH_TRANSFORMATION(#58)
SHAPE_REPRESENTATION_RELATIONSHIP()
);
#49=(
REPRESENTATION_RELATIONSHIP(' ',' ',#280,#277)
REPRESENTATION_RELATIONSHIP_WITH_TRANSFORMATION(#59)
SHAPE_REPRESENTATION_RELATIONSHIP()
);
#50=(
REPRESENTATION_RELATIONSHIP(' ',' ',#280,#277)
REPRESENTATION_RELATIONSHIP_WITH_TRANSFORMATION(#60)
SHAPE_REPRESENTATION_RELATIONSHIP()
);
#51=ITEM_DEFINED_TRANSFORMATION(' ',' ',#281,#298);
#52=ITEM_DEFINED_TRANSFORMATION(' ',' ',#281,#315);
#53=ITEM_DEFINED_TRANSFORMATION(' ',' ',#281,#317);
#54=ITEM_DEFINED_TRANSFORMATION(' ',' ',#281,#318);
#55=ITEM_DEFINED_TRANSFORMATION(' ',' ',#281,#319);
#56=ITEM_DEFINED_TRANSFORMATION(' ',' ',#281,#320);
#57=ITEM_DEFINED_TRANSFORMATION(' ',' ',#281,#321);
#58=ITEM_DEFINED_TRANSFORMATION(' ',' ',#281,#322);
#59=ITEM_DEFINED_TRANSFORMATION(' ',' ',#281,#323);
#60=ITEM_DEFINED_TRANSFORMATION(' ',' ',#281,#324);
#61=SHAPE_REPRESENTATION_RELATIONSHIP('','',#278,#64);
#62=SHAPE_REPRESENTATION_RELATIONSHIP('','',#279,#65);
#63=SHAPE_REPRESENTATION_RELATIONSHIP('','',#280,#66);
#64=ADVANCED_BREP_SHAPE_REPRESENTATION('',(#270),#476);
#65=ADVANCED_BREP_SHAPE_REPRESENTATION('',(#271),#477);
#66=ADVANCED_BREP_SHAPE_REPRESENTATION('',(#272),#478);
#67=CYLINDRICAL_SURFACE('',#287,25.);
#68=CYLINDRICAL_SURFACE('',#293,34.6);
#69=CYLINDRICAL_SURFACE('',#297,34.6);
#70=CYLINDRICAL_SURFACE('',#304,45.4);
#71=CYLINDRICAL_SURFACE('',#314,55.);
#72=TOROIDAL_SURFACE('',#285,26.,0.999999999999999);
#73=TOROIDAL_SURFACE('',#289,27.,2.);
#74=TOROIDAL_SURFACE('',#295,40.,9.);
#75=TOROIDAL_SURFACE('',#299,53.,1.99999999999999);
#76=TOROIDAL_SURFACE('',#306,40.,9.00000000000004);
#77=TOROIDAL_SURFACE('',#312,54.,1.);
#78=ORIENTED_EDGE('',*,*,#110,.T.);
#79=ORIENTED_EDGE('',*,*,#111,.F.);
#80=ORIENTED_EDGE('',*,*,#112,.T.);
#81=ORIENTED_EDGE('',*,*,#110,.F.);
#82=ORIENTED_EDGE('',*,*,#113,.T.);
#83=ORIENTED_EDGE('',*,*,#112,.F.);
#84=ORIENTED_EDGE('',*,*,#114,.T.);
#85=ORIENTED_EDGE('',*,*,#113,.F.);
#86=ORIENTED_EDGE('',*,*,#115,.T.);
#87=ORIENTED_EDGE('',*,*,#114,.F.);
#88=ORIENTED_EDGE('',*,*,#116,.T.);
#89=ORIENTED_EDGE('',*,*,#115,.F.);
#90=ORIENTED_EDGE('',*,*,#116,.F.);
#91=ORIENTED_EDGE('',*,*,#117,.T.);
#92=ORIENTED_EDGE('',*,*,#111,.T.);
#93=ORIENTED_EDGE('',*,*,#117,.F.);
#94=ORIENTED_EDGE('',*,*,#118,.T.);
#95=ORIENTED_EDGE('',*,*,#119,.F.);
#96=ORIENTED_EDGE('',*,*,#120,.T.);
#97=ORIENTED_EDGE('',*,*,#118,.F.);
#98=ORIENTED_EDGE('',*,*,#121,.T.);
#99=ORIENTED_EDGE('',*,*,#120,.F.);
#100=ORIENTED_EDGE('',*,*,#121,.F.);
#101=ORIENTED_EDGE('',*,*,#122,.T.);
#102=ORIENTED_EDGE('',*,*,#123,.T.);
#103=ORIENTED_EDGE('',*,*,#122,.F.);
#104=ORIENTED_EDGE('',*,*,#124,.T.);
#105=ORIENTED_EDGE('',*,*,#123,.F.);
#106=ORIENTED_EDGE('',*,*,#125,.T.);
#107=ORIENTED_EDGE('',*,*,#124,.F.);
#108=ORIENTED_EDGE('',*,*,#119,.T.);
#109=ORIENTED_EDGE('',*,*,#125,.F.);
#110=EDGE_CURVE('',#126,#126,#143,.T.);
#111=EDGE_CURVE('',#127,#127,#144,.T.);
#112=EDGE_CURVE('',#128,#128,#145,.T.);
#113=EDGE_CURVE('',#129,#129,#146,.T.);
#114=EDGE_CURVE('',#130,#130,#147,.T.);
#115=EDGE_CURVE('',#131,#131,#148,.T.);
#116=EDGE_CURVE('',#132,#132,#149,.T.);
#117=EDGE_CURVE('',#133,#133,#150,.T.);
#118=EDGE_CURVE('',#134,#134,#151,.T.);
#119=EDGE_CURVE('',#135,#135,#152,.T.);
#120=EDGE_CURVE('',#136,#136,#153,.T.);
#121=EDGE_CURVE('',#137,#137,#154,.T.);
#122=EDGE_CURVE('',#138,#138,#155,.T.);
#123=EDGE_CURVE('',#139,#139,#156,.T.);
#124=EDGE_CURVE('',#140,#140,#157,.T.);
#125=EDGE_CURVE('',#141,#141,#158,.T.);
#126=VERTEX_POINT('',#416);
#127=VERTEX_POINT('',#418);
#128=VERTEX_POINT('',#421);
#129=VERTEX_POINT('',#424);
#130=VERTEX_POINT('',#427);
#131=VERTEX_POINT('',#430);
#132=VERTEX_POINT('',#433);
#133=VERTEX_POINT('',#436);
#134=VERTEX_POINT('',#441);
#135=VERTEX_POINT('',#443);
#136=VERTEX_POINT('',#446);
#137=VERTEX_POINT('',#449);
#138=VERTEX_POINT('',#452);
#139=VERTEX_POINT('',#455);
#140=VERTEX_POINT('',#458);
#141=VERTEX_POINT('',#461);
#142=VERTEX_POINT('',#465);
#143=CIRCLE('',#283,26.);
#144=CIRCLE('',#284,34.6);
#145=CIRCLE('',#286,25.);
#146=CIRCLE('',#288,25.);
#147=CIRCLE('',#290,27.);
#148=CIRCLE('',#292,34.6);
#149=CIRCLE('',#294,34.6);
#150=CIRCLE('',#296,34.6);
#151=CIRCLE('',#300,53.);
#152=CIRCLE('',#301,55.);
#153=CIRCLE('',#303,45.4);
#154=CIRCLE('',#305,45.4);
#155=CIRCLE('',#307,48.68125);
#156=CIRCLE('',#309,50.20375);
#157=CIRCLE('',#311,54.);
#158=CIRCLE('',#313,55.);
#159=EDGE_LOOP('',(#78));
#160=EDGE_LOOP('',(#79));
#161=EDGE_LOOP('',(#80));
#162=EDGE_LOOP('',(#81));
#163=EDGE_LOOP('',(#82));
#164=EDGE_LOOP('',(#83));
#165=EDGE_LOOP('',(#84));
#166=EDGE_LOOP('',(#85));
#167=EDGE_LOOP('',(#86));
#168=EDGE_LOOP('',(#87));
#169=EDGE_LOOP('',(#88));
#170=EDGE_LOOP('',(#89));
#171=EDGE_LOOP('',(#90));
#172=EDGE_LOOP('',(#91));
#173=EDGE_LOOP('',(#92));
#174=EDGE_LOOP('',(#93));
#175=EDGE_LOOP('',(#94));
#176=EDGE_LOOP('',(#95));
#177=EDGE_LOOP('',(#96));
#178=EDGE_LOOP('',(#97));
#179=EDGE_LOOP('',(#98));
#180=EDGE_LOOP('',(#99));
#181=EDGE_LOOP('',(#100));
#182=EDGE_LOOP('',(#101));
#183=EDGE_LOOP('',(#102));
#184=EDGE_LOOP('',(#103));
#185=EDGE_LOOP('',(#104));
#186=EDGE_LOOP('',(#105));
#187=EDGE_LOOP('',(#106));
#188=EDGE_LOOP('',(#107));
#189=EDGE_LOOP('',(#108));
#190=EDGE_LOOP('',(#109));
#191=FACE_BOUND('',#159,.T.);
#192=FACE_BOUND('',#160,.T.);
#193=FACE_BOUND('',#161,.T.);
#194=FACE_BOUND('',#162,.T.);
#195=FACE_BOUND('',#163,.T.);
#196=FACE_BOUND('',#164,.T.);
#197=FACE_BOUND('',#165,.T.);
#198=FACE_BOUND('',#166,.T.);
#199=FACE_BOUND('',#167,.T.);
#200=FACE_BOUND('',#168,.T.);
#201=FACE_BOUND('',#169,.T.);
#202=FACE_BOUND('',#170,.T.);
#203=FACE_BOUND('',#171,.T.);
#204=FACE_BOUND('',#172,.T.);
#205=FACE_BOUND('',#173,.T.);
#206=FACE_BOUND('',#174,.T.);
#207=FACE_BOUND('',#175,.T.);
#208=FACE_BOUND('',#176,.T.);
#209=FACE_BOUND('',#177,.T.);
#210=FACE_BOUND('',#178,.T.);
#211=FACE_BOUND('',#179,.T.);
#212=FACE_BOUND('',#180,.T.);
#213=FACE_BOUND('',#181,.T.);
#214=FACE_BOUND('',#182,.T.);
#215=FACE_BOUND('',#183,.T.);
#216=FACE_BOUND('',#184,.T.);
#217=FACE_BOUND('',#185,.T.);
#218=FACE_BOUND('',#186,.T.);
#219=FACE_BOUND('',#187,.T.);
#220=FACE_BOUND('',#188,.T.);
#221=FACE_BOUND('',#189,.T.);
#222=FACE_BOUND('',#190,.T.);
#223=FACE_BOUND('',#18,.T.);
#224=PLANE('',#282);
#225=PLANE('',#291);
#226=PLANE('',#302);
#227=PLANE('',#310);
#228=ADVANCED_FACE('',(#191,#192),#224,.T.);
#229=ADVANCED_FACE('',(#193,#194),#72,.T.);
#230=ADVANCED_FACE('',(#195,#196),#67,.F.);
#231=ADVANCED_FACE('',(#197,#198),#73,.T.);
#232=ADVANCED_FACE('',(#199,#200),#225,.T.);
#233=ADVANCED_FACE('',(#201,#202),#68,.T.);
#234=ADVANCED_FACE('',(#203,#204),#74,.F.);
#235=ADVANCED_FACE('',(#205,#206),#69,.T.);
#236=ADVANCED_FACE('',(#207,#208),#75,.T.);
#237=ADVANCED_FACE('',(#209,#210),#226,.T.);
#238=ADVANCED_FACE('',(#211,#212),#70,.F.);
#239=ADVANCED_FACE('',(#213,#214),#76,.F.);
#240=ADVANCED_FACE('',(#215,#216),#20,.F.);
#241=ADVANCED_FACE('',(#217,#218),#227,.T.);
#242=ADVANCED_FACE('',(#219,#220),#77,.T.);
#243=ADVANCED_FACE('',(#221,#222),#71,.T.);
#244=ADVANCED_FACE('',(#223),#19,.T.);
#245=CLOSED_SHELL('',(#228,#229,#230,#231,#232,#233,#234,#235));
#246=CLOSED_SHELL('',(#236,#237,#238,#239,#240,#241,#242,#243));
#247=CLOSED_SHELL('',(#244));
#248=STYLED_ITEM('',(#251),#270);
#249=STYLED_ITEM('',(#252),#271);
#250=STYLED_ITEM('',(#253),#272);
#251=PRESENTATION_STYLE_ASSIGNMENT((#254));
#252=PRESENTATION_STYLE_ASSIGNMENT((#255));
#253=PRESENTATION_STYLE_ASSIGNMENT((#256));
#254=SURFACE_STYLE_USAGE(.BOTH.,#257);
#255=SURFACE_STYLE_USAGE(.BOTH.,#258);
#256=SURFACE_STYLE_USAGE(.BOTH.,#259);
#257=SURFACE_SIDE_STYLE('',(#260));
#258=SURFACE_SIDE_STYLE('',(#261));
#259=SURFACE_SIDE_STYLE('',(#262));
#260=SURFACE_STYLE_FILL_AREA(#263);
#261=SURFACE_STYLE_FILL_AREA(#264);
#262=SURFACE_STYLE_FILL_AREA(#265);
#263=FILL_AREA_STYLE('',(#266));
#264=FILL_AREA_STYLE('',(#267));
#265=FILL_AREA_STYLE('',(#268));
#266=FILL_AREA_STYLE_COLOUR('',#269);
#267=FILL_AREA_STYLE_COLOUR('',#269);
#268=FILL_AREA_STYLE_COLOUR('',#269);
#269=COLOUR_RGB('',0.689999997615814,0.689999997615814,0.689999997615814);
#270=MANIFOLD_SOLID_BREP('7310B0 Inner ring',#245);
#271=MANIFOLD_SOLID_BREP('7310B0 Outer ring',#246);
#272=MANIFOLD_SOLID_BREP('7310B0 Ball',#247);
#273=SHAPE_DEFINITION_REPRESENTATION(#486,#277);
#274=SHAPE_DEFINITION_REPRESENTATION(#487,#278);
#275=SHAPE_DEFINITION_REPRESENTATION(#489,#279);
#276=SHAPE_DEFINITION_REPRESENTATION(#491,#280);
#277=SHAPE_REPRESENTATION('7310B',(#281,#298,#315,#317,#318,#319,#320,#321,
#322,#323,#324),#475);
#278=SHAPE_REPRESENTATION('7310B0 Inner ring',(#281),#476);
#279=SHAPE_REPRESENTATION('7310B0 Outer ring',(#281),#477);
#280=SHAPE_REPRESENTATION('7310B0 Ball',(#281),#478);
#281=AXIS2_PLACEMENT_3D('',#413,#325,#326);
#282=AXIS2_PLACEMENT_3D('',#414,#327,#328);
#283=AXIS2_PLACEMENT_3D('',#415,#329,#330);
#284=AXIS2_PLACEMENT_3D('',#417,#331,#332);
#285=AXIS2_PLACEMENT_3D('',#419,#333,#334);
#286=AXIS2_PLACEMENT_3D('',#420,#335,#336);
#287=AXIS2_PLACEMENT_3D('',#422,#337,#338);
#288=AXIS2_PLACEMENT_3D('',#423,#339,#340);
#289=AXIS2_PLACEMENT_3D('',#425,#341,#342);
#290=AXIS2_PLACEMENT_3D('',#426,#343,#344);
#291=AXIS2_PLACEMENT_3D('',#428,#345,#346);
#292=AXIS2_PLACEMENT_3D('',#429,#347,#348);
#293=AXIS2_PLACEMENT_3D('',#431,#349,#350);
#294=AXIS2_PLACEMENT_3D('',#432,#351,#352);
#295=AXIS2_PLACEMENT_3D('',#434,#353,#354);
#296=AXIS2_PLACEMENT_3D('',#435,#355,#356);
#297=AXIS2_PLACEMENT_3D('',#437,#357,#358);
#298=AXIS2_PLACEMENT_3D('',#438,#359,#360);
#299=AXIS2_PLACEMENT_3D('',#439,#361,#362);
#300=AXIS2_PLACEMENT_3D('',#440,#363,#364);
#301=AXIS2_PLACEMENT_3D('',#442,#365,#366);
#302=AXIS2_PLACEMENT_3D('',#444,#367,#368);
#303=AXIS2_PLACEMENT_3D('',#445,#369,#370);
#304=AXIS2_PLACEMENT_3D('',#447,#371,#372);
#305=AXIS2_PLACEMENT_3D('',#448,#373,#374);
#306=AXIS2_PLACEMENT_3D('',#450,#375,#376);
#307=AXIS2_PLACEMENT_3D('',#451,#377,#378);
#308=AXIS2_PLACEMENT_3D('',#453,#379,#380);
#309=AXIS2_PLACEMENT_3D('',#454,#381,#382);
#310=AXIS2_PLACEMENT_3D('',#456,#383,#384);
#311=AXIS2_PLACEMENT_3D('',#457,#385,#386);
#312=AXIS2_PLACEMENT_3D('',#459,#387,#388);
#313=AXIS2_PLACEMENT_3D('',#460,#389,#390);
#314=AXIS2_PLACEMENT_3D('',#462,#391,#392);
#315=AXIS2_PLACEMENT_3D('',#463,#393,#394);
#316=AXIS2_PLACEMENT_3D('',#464,#395,#396);
#317=AXIS2_PLACEMENT_3D('',#466,#397,#398);
#318=AXIS2_PLACEMENT_3D('',#467,#399,#400);
#319=AXIS2_PLACEMENT_3D('',#468,#401,#402);
#320=AXIS2_PLACEMENT_3D('',#469,#403,#404);
#321=AXIS2_PLACEMENT_3D('',#470,#405,#406);
#322=AXIS2_PLACEMENT_3D('',#471,#407,#408);
#323=AXIS2_PLACEMENT_3D('',#472,#409,#410);
#324=AXIS2_PLACEMENT_3D('',#473,#411,#412);
#325=DIRECTION('',(0.,0.,1.));
#326=DIRECTION('',(1.,0.,0.));
#327=DIRECTION('',(-1.,0.,0.));
#328=DIRECTION('',(0.,0.,1.));
#329=DIRECTION('',(1.,0.,0.));
#330=DIRECTION('',(0.,0.,-1.));
#331=DIRECTION('',(1.,0.,0.));
#332=DIRECTION('',(0.,0.,-1.));
#333=DIRECTION('',(1.,0.,0.));
#334=DIRECTION('',(0.,0.,-1.));
#335=DIRECTION('',(1.,0.,0.));
#336=DIRECTION('',(0.,0.,-1.));
#337=DIRECTION('',(1.,0.,0.));
#338=DIRECTION('',(0.,0.,-1.));
#339=DIRECTION('',(1.,0.,0.));
#340=DIRECTION('',(0.,0.,-1.));
#341=DIRECTION('',(1.,0.,0.));
#342=DIRECTION('',(0.,0.,-1.));
#343=DIRECTION('',(1.,0.,0.));
#344=DIRECTION('',(0.,0.,-1.));
#345=DIRECTION('',(1.,0.,0.));
#346=DIRECTION('',(0.,0.,-1.));
#347=DIRECTION('',(1.,0.,0.));
#348=DIRECTION('',(0.,0.,-1.));
#349=DIRECTION('',(1.,0.,0.));
#350=DIRECTION('',(0.,0.,-1.));
#351=DIRECTION('',(1.,0.,0.));
#352=DIRECTION('',(0.,0.,-1.));
#353=DIRECTION('',(1.,0.,0.));
#354=DIRECTION('',(0.,0.,-1.));
#355=DIRECTION('',(1.,0.,0.));
#356=DIRECTION('',(0.,0.,-1.));
#357=DIRECTION('',(1.,0.,0.));
#358=DIRECTION('',(0.,0.,-1.));
#359=DIRECTION('',(0.,0.,1.));
#360=DIRECTION('',(1.,0.,0.));
#361=DIRECTION('',(1.,0.,0.));
#362=DIRECTION('',(0.,0.,-1.));
#363=DIRECTION('',(1.,0.,0.));
#364=DIRECTION('',(0.,0.,-1.));
#365=DIRECTION('',(1.,0.,0.));
#366=DIRECTION('',(0.,0.,-1.));
#367=DIRECTION('',(-1.,0.,0.));
#368=DIRECTION('',(0.,0.,1.));
#369=DIRECTION('',(1.,0.,0.));
#370=DIRECTION('',(0.,0.,-1.));
#371=DIRECTION('',(1.,0.,0.));
#372=DIRECTION('',(0.,0.,-1.));
#373=DIRECTION('',(1.,0.,0.));
#374=DIRECTION('',(0.,0.,-1.));
#375=DIRECTION('',(1.,0.,0.));
#376=DIRECTION('',(0.,0.,-1.));
#377=DIRECTION('',(1.,0.,0.));
#378=DIRECTION('',(0.,0.,-1.));
#379=DIRECTION('',(1.,0.,0.));
#380=DIRECTION('',(0.,0.,-1.));
#381=DIRECTION('',(1.,0.,0.));
#382=DIRECTION('',(0.,0.,-1.));
#383=DIRECTION('',(1.,0.,0.));
#384=DIRECTION('',(0.,0.,-1.));
#385=DIRECTION('',(1.,0.,0.));
#386=DIRECTION('',(0.,0.,-1.));
#387=DIRECTION('',(1.,0.,0.));
#388=DIRECTION('',(0.,0.,-1.));
#389=DIRECTION('',(1.,0.,0.));
#390=DIRECTION('',(0.,0.,-1.));
#391=DIRECTION('',(1.,0.,0.));
#392=DIRECTION('',(0.,0.,-1.));
#393=DIRECTION('',(0.,0.,1.));
#394=DIRECTION('',(1.,0.,0.));
#395=DIRECTION('',(1.,0.,0.));
#396=DIRECTION('',(0.,1.,0.));
#397=DIRECTION('',(0.,0.,1.));
#398=DIRECTION('',(-1.,0.,0.));
#399=DIRECTION('',(0.,0.,1.));
#400=DIRECTION('',(-1.,0.,0.));
#401=DIRECTION('',(0.,0.,1.));
#402=DIRECTION('',(-1.,0.,0.));
#403=DIRECTION('',(0.,0.,1.));
#404=DIRECTION('',(-1.,0.,0.));
#405=DIRECTION('',(0.,0.,1.));
#406=DIRECTION('',(-1.,0.,0.));
#407=DIRECTION('',(0.,0.,1.));
#408=DIRECTION('',(-1.,0.,0.));
#409=DIRECTION('',(0.,0.,1.));
#410=DIRECTION('',(-1.,0.,0.));
#411=DIRECTION('',(0.,0.,1.));
#412=DIRECTION('',(-1.,0.,0.));
#413=CARTESIAN_POINT('',(0.,0.,0.));
#414=CARTESIAN_POINT('',(0.,34.6,0.));
#415=CARTESIAN_POINT('',(0.,0.,0.));
#416=CARTESIAN_POINT('',(0.,0.,-26.));
#417=CARTESIAN_POINT('',(0.,0.,0.));
#418=CARTESIAN_POINT('',(0.,0.,-34.6));
#419=CARTESIAN_POINT('',(0.999999999999999,0.,0.));
#420=CARTESIAN_POINT('',(1.,0.,0.));
#421=CARTESIAN_POINT('',(1.,0.,-25.));
#422=CARTESIAN_POINT('',(27.,0.,0.));
#423=CARTESIAN_POINT('',(25.,0.,0.));
#424=CARTESIAN_POINT('',(25.,0.,-25.));
#425=CARTESIAN_POINT('',(25.,0.,0.));
#426=CARTESIAN_POINT('',(27.,0.,0.));
#427=CARTESIAN_POINT('',(27.,0.,-27.));
#428=CARTESIAN_POINT('',(27.,27.,0.));
#429=CARTESIAN_POINT('',(27.,0.,0.));
#430=CARTESIAN_POINT('',(27.,0.,-34.6));
#431=CARTESIAN_POINT('',(27.,0.,0.));
#432=CARTESIAN_POINT('',(20.7,0.,0.));
#433=CARTESIAN_POINT('',(20.7,0.,-34.6));
#434=CARTESIAN_POINT('',(13.5,0.,0.));
#435=CARTESIAN_POINT('',(6.3,0.,0.));
#436=CARTESIAN_POINT('',(6.3,0.,-34.6));
#437=CARTESIAN_POINT('',(27.,0.,0.));
#438=CARTESIAN_POINT('',(0.,0.,0.));
#439=CARTESIAN_POINT('',(2.,0.,0.));
#440=CARTESIAN_POINT('',(0.,0.,0.));
#441=CARTESIAN_POINT('',(0.,0.,-53.));
#442=CARTESIAN_POINT('',(2.,0.,0.));
#443=CARTESIAN_POINT('',(2.,0.,-55.));
#444=CARTESIAN_POINT('',(0.,53.,0.));
#445=CARTESIAN_POINT('',(0.,0.,0.));
#446=CARTESIAN_POINT('',(0.,0.,-45.4));
#447=CARTESIAN_POINT('',(27.,0.,0.));
#448=CARTESIAN_POINT('',(6.3,0.,0.));
#449=CARTESIAN_POINT('',(6.3,0.,-45.4));
#450=CARTESIAN_POINT('',(13.5,0.,0.));
#451=CARTESIAN_POINT('',(15.8740047256693,0.,0.));
#452=CARTESIAN_POINT('',(15.8740047256693,0.,-48.68125));
#453=CARTESIAN_POINT('',(15.8740047256693,0.,0.));
#454=CARTESIAN_POINT('',(27.,0.,0.));
#455=CARTESIAN_POINT('',(27.,0.,-50.20375));
#456=CARTESIAN_POINT('',(27.,50.20375,0.));
#457=CARTESIAN_POINT('',(27.,0.,0.));
#458=CARTESIAN_POINT('',(27.,0.,-54.));
#459=CARTESIAN_POINT('',(26.,0.,0.));
#460=CARTESIAN_POINT('',(26.,0.,0.));
#461=CARTESIAN_POINT('',(26.,0.,-55.));
#462=CARTESIAN_POINT('',(27.,0.,0.));
#463=CARTESIAN_POINT('',(0.,0.,0.));
#464=CARTESIAN_POINT('',(0.,-1.73472347597681E-15,0.));
#465=CARTESIAN_POINT('',(-8.865,-1.19189878225474E-15,0.));
#466=CARTESIAN_POINT('',(13.5,40.,0.));
#467=CARTESIAN_POINT('',(13.5,28.2842712474619,28.2842712474619));
#468=CARTESIAN_POINT('',(13.5,0.,40.));
#469=CARTESIAN_POINT('',(13.5,-28.2842712474619,28.2842712474619));
#470=CARTESIAN_POINT('',(13.5,-40.,0.));
#471=CARTESIAN_POINT('',(13.5,-28.2842712474619,-28.2842712474619));
#472=CARTESIAN_POINT('',(13.5,0.,-40.));
#473=CARTESIAN_POINT('',(13.5,28.2842712474619,-28.2842712474619));
#474=MECHANICAL_DESIGN_GEOMETRIC_PRESENTATION_REPRESENTATION('',(#248,#249,
#250),#475);
#475=(
GEOMETRIC_REPRESENTATION_CONTEXT(3)
GLOBAL_UNCERTAINTY_ASSIGNED_CONTEXT((#479))
GLOBAL_UNIT_ASSIGNED_CONTEXT((#485,#484,#483))
REPRESENTATION_CONTEXT('7310B','TOP_LEVEL_ASSEMBLY_PART')
);
#476=(
GEOMETRIC_REPRESENTATION_CONTEXT(3)
GLOBAL_UNCERTAINTY_ASSIGNED_CONTEXT((#480))
GLOBAL_UNIT_ASSIGNED_CONTEXT((#485,#484,#483))
REPRESENTATION_CONTEXT('7310B0 Inner ring','COMPONENT_PART')
);
#477=(
GEOMETRIC_REPRESENTATION_CONTEXT(3)
GLOBAL_UNCERTAINTY_ASSIGNED_CONTEXT((#481))
GLOBAL_UNIT_ASSIGNED_CONTEXT((#485,#484,#483))
REPRESENTATION_CONTEXT('7310B0 Outer ring','COMPONENT_PART')
);
#478=(
GEOMETRIC_REPRESENTATION_CONTEXT(3)
GLOBAL_UNCERTAINTY_ASSIGNED_CONTEXT((#482))
GLOBAL_UNIT_ASSIGNED_CONTEXT((#485,#484,#483))
REPRESENTATION_CONTEXT('7310B0 Ball','COMPONENT_PART')
);
#479=UNCERTAINTY_MEASURE_WITH_UNIT(LENGTH_MEASURE(0.005),#485,
'DISTANCE_ACCURACY_VALUE','Maximum Tolerance applied to model');
#480=UNCERTAINTY_MEASURE_WITH_UNIT(LENGTH_MEASURE(0.005),#485,
'DISTANCE_ACCURACY_VALUE','Maximum Tolerance applied to model');
#481=UNCERTAINTY_MEASURE_WITH_UNIT(LENGTH_MEASURE(0.005),#485,
'DISTANCE_ACCURACY_VALUE','Maximum Tolerance applied to model');
#482=UNCERTAINTY_MEASURE_WITH_UNIT(LENGTH_MEASURE(0.005),#485,
'DISTANCE_ACCURACY_VALUE','Maximum Tolerance applied to model');
#483=(
NAMED_UNIT(*)
SI_UNIT($,.STERADIAN.)
SOLID_ANGLE_UNIT()
);
#484=(
NAMED_UNIT(*)
PLANE_ANGLE_UNIT()
SI_UNIT($,.RADIAN.)
);
#485=(
LENGTH_UNIT()
NAMED_UNIT(*)
SI_UNIT(.MILLI.,.METRE.)
);
#486=PRODUCT_DEFINITION_SHAPE('','',#500);
#487=PRODUCT_DEFINITION_SHAPE('','',#501);
#488=PRODUCT_DEFINITION_SHAPE(' ','NAUO PRDDFN',#31);
#489=PRODUCT_DEFINITION_SHAPE('','',#502);
#490=PRODUCT_DEFINITION_SHAPE(' ','NAUO PRDDFN',#32);
#491=PRODUCT_DEFINITION_SHAPE('','',#503);
#492=PRODUCT_DEFINITION_SHAPE(' ','NAUO PRDDFN',#33);
#493=PRODUCT_DEFINITION_SHAPE(' ','NAUO PRDDFN',#34);
#494=PRODUCT_DEFINITION_SHAPE(' ','NAUO PRDDFN',#35);
#495=PRODUCT_DEFINITION_SHAPE(' ','NAUO PRDDFN',#36);
#496=PRODUCT_DEFINITION_SHAPE(' ','NAUO PRDDFN',#37);
#497=PRODUCT_DEFINITION_SHAPE(' ','NAUO PRDDFN',#38);
#498=PRODUCT_DEFINITION_SHAPE(' ','NAUO PRDDFN',#39);
#499=PRODUCT_DEFINITION_SHAPE(' ','NAUO PRDDFN',#40);
#500=PRODUCT_DEFINITION('','',#508,#504);
#501=PRODUCT_DEFINITION('','',#509,#505);
#502=PRODUCT_DEFINITION('','',#510,#506);
#503=PRODUCT_DEFINITION('','',#511,#507);
#504=PRODUCT_DEFINITION_CONTEXT('',#529,'design');
#505=PRODUCT_DEFINITION_CONTEXT('',#529,'design');
#506=PRODUCT_DEFINITION_CONTEXT('',#529,'design');
#507=PRODUCT_DEFINITION_CONTEXT('',#529,'design');
#508=PRODUCT_DEFINITION_FORMATION_WITH_SPECIFIED_SOURCE('','',#516,
 .NOT_KNOWN.);
#509=PRODUCT_DEFINITION_FORMATION_WITH_SPECIFIED_SOURCE('','',#517,
 .NOT_KNOWN.);
#510=PRODUCT_DEFINITION_FORMATION_WITH_SPECIFIED_SOURCE('','',#518,
 .NOT_KNOWN.);
#511=PRODUCT_DEFINITION_FORMATION_WITH_SPECIFIED_SOURCE('','',#519,
 .NOT_KNOWN.);
#512=PRODUCT_RELATED_PRODUCT_CATEGORY('','',(#516));
#513=PRODUCT_RELATED_PRODUCT_CATEGORY('','',(#517));
#514=PRODUCT_RELATED_PRODUCT_CATEGORY('','',(#518));
#515=PRODUCT_RELATED_PRODUCT_CATEGORY('','',(#519));
#516=PRODUCT('7310B','7310B','7310B',(#524));
#517=PRODUCT('7310B0 Inner ring','7310B0 Inner ring',
'7310B0 Inner ring',(#525));
#518=PRODUCT('7310B0 Outer ring','7310B0 Outer ring',
'7310B0 Outer ring',(#526));
#519=PRODUCT('7310B0 Ball','7310B0 Ball','7310B0 Ball',(#527));
#520=PRODUCT_CATEGORY('','');
#521=PRODUCT_CATEGORY('','');
#522=PRODUCT_CATEGORY('','');
#523=PRODUCT_CATEGORY('','');
#524=PRODUCT_CONTEXT('',#529,'mechanical');
#525=PRODUCT_CONTEXT('',#529,'mechanical');
#526=PRODUCT_CONTEXT('',#529,'mechanical');
#527=PRODUCT_CONTEXT('',#529,'mechanical');
#528=APPLICATION_PROTOCOL_DEFINITION('international standard',
'automotive_design',2010,#529);
#529=APPLICATION_CONTEXT(
'core data for automotive mechanical design processes');
ENDSEC;
END-ISO-10303-21;
